Coal Chamber

Fade Away

Coal Chamber

tabs

by  JESSGOMES

save to print version add songbook text version e-mail correct tuner
chordsukulelecavacokeyboardtabbassdrumsharmonicaflute Guitar Pro
close

there isn't a video lesson for this song

chords

Fade Away

	  		

Guitar 1 (w/ dist and reverb/delay) 

    .......................................................................... 
 B|-22-----22-----22--19-----19-----19--|-20-----20-----20--19-----19-----19--| 
F#|-------------------------------------|-------------------------------------| 
 D|-----19-----19---------19-----19-----|-----19-----19---------19-----19-----| x2 
 A|-------------------------------------|-------------------------------------| 
 E|-------------------------------------|-------------------------------------| 
 A|-------------------------------------|-------------------------------------| 



Guitars 1 and 2 (w/ dist) 

 B|----------------------------------------------|----------------------------------------------| 
F#|----------------------------------------------|----------------------------------------------| 
 D|----------------------------------------------|----------------------------------------------| x2 
 A|----------------------------------------------|----------------------------------------------| 
 E|----------------------------------------------|----------------------------------------------| 
 A|-3--2--0--3--2--0--3--2--0--3--2--0--3--2--0--|-15-14-0--15-14-0--15-14-0--15-14-0--15-14-0--| 


Guitars 1 and 2 (w/ dist) 

 B|-------------------------| 
F#|-------------------------| 
 D|-------------------------| x4 
 A|-3--2--0-----3--2--0-----| 
 E|-3--2--0-----3--2--0-----| 
 A|-3--2--0-----3--2--0-----| 


I. Guitars 1 and 2 (w/ dist) 

 B|----------------------------------------------|----------------------------------------------| 
F#|----------------------------------------------|----------------------------------------------| 
 D|----------------------------------------------|----------------------------------------------| x2 
 A|----------------------------------------------|----------------------------------------------| 
 E|----------------------------------------------|----------------------------------------------| 
 A|-3--2--0--3--2--0--3--2--0--3--2--0--3--2--0--|-15-14-0--15-14-0--15-14-0--15-14-0--15-14-0--| 

II. Guitar 1 (w/ dist and reverb/delay) 

    .......................................................................... 
 B|-22-----22-----22--19-----19-----19--|-20-----20-----20--19-----19-----19--| 
F#|-------------------------------------|-------------------------------------| 
 D|-----19-----19---------19-----19-----|-----19-----19---------19-----19-----| x2 
 A|-------------------------------------|-------------------------------------| 
 E|-------------------------------------|-------------------------------------| 
 A|-------------------------------------|-------------------------------------| 


Guitars 1 and 2 (w/ dist) 

 B|-------------------------| 
F#|-------------------------| 
 D|-------------------------| x4 
 A|-3--2--0-----3--2--0-----| 
 E|-3--2--0-----3--2--0-----| 
 A|-3--2--0-----3--2--0-----| 

 B|------------------------------------|----------------------------------| 
F#|------------------------------------|----------------------------------| 
 D|------------------------------------|----------------------------------| x2 
 A|------------------------------------|----------------------------------| 
 E|------------------------------------|----------------------------------| 
 A|-3--2--0---0---0---3--2--0---0---0--|-3--2--0---0---0---3--2----3--2---| 
              *   *             *   *              *   * 


I. Guitars 1 and 2 (w/ dist) 

 B|------------------------------------------------| 
F#|------------------------------------------------| 
 D|------------------------------------------------| x12 
 A|------------------------------------------------|  
 E|------------------------------------------------| 
 A|-1-p0--1-----1-p0--1-----1-p0--1-----1-p0--1----| 

 B|-----------------------------------------| 
F#|-----------------------------------------| 
 D|-----------------------------3--3--3--3--| x2 
 A|-1---------------------------x--x--x--x--| 
 E|-1--0--0---0---0--0---0--0---1--1--1--1--| 
 A|-1--0--0---0---0--0---0--0---------------| 

 B|------------------------------------------------| 
F#|------------------------------------------------| 
 D|------------------------------------------------| x3 
 A|------------------------------------------------|  
 E|------------------------------------------------| 
 A|-1-p0--1-----1-p0--1-----1-p0--1-----1-p0--1----| 

 B|-----------------------------------------| 
F#|-----------------------------------------| 
 D|-----------------------------3--3--3--3--| x2 
 A|-1---------------------------x--x--x--x--| 
 E|-1--0--0---0---0--0---0--0---1--1--1--1--| 
 A|-1--0--0---0---0--0---0--0---------------| 

II. Guitar 1 (w/ dist and reverb/delay) 

    .......................................................................... 
 B|-22-----22-----22--19-----19-----19--|-20-----20-----20--19-----19-----19--| 
F#|-------------------------------------|-------------------------------------| 
 D|-----19-----19---------19-----19-----|-----19-----19---------19-----19-----| x4 
 A|-------------------------------------|-------------------------------------| 
 E|-------------------------------------|-------------------------------------| 
 A|-------------------------------------|-------------------------------------| 


Guitars 1 and 2 (w/ dist) 

 B|-------------------------| 
F#|-------------------------| 
 D|-------------------------| x4 
 A|-3--2--0-----3--2--0-----| 
 E|-3--2--0-----3--2--0-----| 
 A|-3--2--0-----3--2--0-----| 

 B|------------------------------------|----------------------------------| 
F#|------------------------------------|----------------------------------| 
 D|------------------------------------|----------------------------------| x4 
 A|------------------------------------|----------------------------------| 
 E|------------------------------------|----------------------------------| 
 A|-3--2--0---0---0---3--2--0---0---0--|-3--2--0---0---0---3--2----3--2---| 
              *   *             *   *              *   * 
		  

See also:

tabs Avantasia - Sign Of The Cross tabs Bloodhound Gang - Fire Water Burn (The Roof is on Fire) tabs Deftones - Change tabs Crazy Town - Buterfly tabs Stone Sour - Bother tabs Interpol - Obstacle (ver. 1)
e-chords

Other versions:

tabs Automatic - Fade Away tabs Seether - Fade away tabs Yodelice - Fade Away tabs We Came As Romans - Fade Away tabs Best Coast - Fade Away tabs Rebelution - Fade Away
auto scroll beats size up size down change color hide chords drawings
tab show chords e-chords YouTube Clip e-chords hide all tabs e-chords go to top tab

share