Coal Chamber

Empty Jar

Coal Chamber

tabs

save to print version add songbook text version e-mail correct tuner
chordsukulelecavacokeyboardtabbassdrumsharmonicaflute Guitar Pro
close

there isn't a video lesson for this song

chords

Empty Jar

	  		band : coal chamber 
song : empty jar 
cd : dark days 
 
tunning : a e a d g b 
 
- = palm mute 
~ = let ring 
 
intro/verse 1                                     verse 2 
-------------------------------       -----      ------------------------------- 
---21---21---21---21---21---21-       -----      ---21--------21---21--------21- 
-------------------------------4x's   -----      -------------------------------2x's 
-18---18---18---19---19---19---       -18~-      -18---18-------19---19--------- 
-------------------------------       -----      ------------------------------- 
-------------------------------       -----      ------------------------------- 
 
then verse 1 2x's 
 
heavy verse                        verse 3 
--------------------------        ------------------------------- 
--------------------------        ----21-------------21---------- 
--------------------------4x's    -------------------------------2x's 
-1-1----1-1----1-1----1-1-        -18----18----18-19----19----19- 
-1-1----1-1----1-1----1-1-        ------------------------------- 
-1-1----1-1----1-1----1-1-        ------------------------------- 
 - -    - -    - -    - -  
 
then verse 2 2x's 
then heavy verse 4x's 
 
chorus 
--------------------------------- 
--------------------------------- 
--------------------------------- 
-7----10-9-13-12-7----10-9-13-12-4x's 
-7----10-9-13-12-7----10-9-13-12- 
-7----10-9-13-12-7----10-9-13-12- 
 
intrelude 
------------------------------------------------------------------------------------ 
------------------------------------------------------------------------------------- 
------------------------------------------------------------------------------------ 
-1-1---1-1--------1-1---1-1---1-1--0~--1-1---1-1---------1-1---1-1---1-1--3-3-3-3-3- 
-1-1---1-1--------1-1---1-1---1-1--0~--1-1---1-1---------1-1---1-1---1-1--3-3-3-3-3- 
-1-1---1-1--------1-1---1-1---1-1--0~--1-1---1-1---------1-1---1-1---1-1--3-3-3-3-3- 
 - -   - -        - -   - -   - -      - -   - -         - -   - -   - -  - - - - - 
 
intrelude 2 
------------------------------------------------------- 
------------------------------------------------------- 
-------------------------------------------------------2x's 
-1-1--1-1--1-1--1-1-----1-1---1-1--1-1--1-1-1-3--1-1-3- 
-1-1--1-1--1-1--1-1-----1-1---1-1--1-1--1-1-1-3--1-1-3- 
-1-1--1-1--1-1--1-1-----1-1---1-1--1-1--1-1-1-3--1-1-3- 
 - -  - -  - -  - -     - -   - -  - -  - - -    - - 
 
intrelude 3 
-------------------------- 
-------------------------- 
--------------------------4x's    
-1-1--1-1--1-1-1-3--1-1-3- 
-1-1--1-1--1-1-1-3--1-1-3- 
-1-1--1-1--1-1-1-3--1-1-3- 
 - -  -    - - -    - - 
 
then chorus 4x's 
 
then 
----------------------------------- 
----------------------------------- 
-9----12-11-15-14-9----12-11-15-14-4x's 
-7----10-9--13-12-7----10-9--13-12- 
-7----10-9--13-12-7----10-9--13-12- 
-7----10-9--13-12-7----10-9--13-12- 
 
then intrelude 2(but instead of 3's play 0's) 2x's 
then intrelude 3 8x's 
 
 
end on 
---- 
---- 
---- 
-1~- 
-1~- 
-1~- 
 
thas it. try to follow it the best you can(please rate) 
theroofingfiddler 
 

		  

See also:

tabs Deftones - Change tabs Velvet Revolver - Fall to pieces tabs Darkness - I Believe in a Thing Called Love tabs Lifehouse - Blind Acoustic tabs Queens Of The Stone Age - Go with the Flow tabs Black Crowes - Remedy
e-chords

Other versions:

tabs Coal Chamber - Empty Jar
auto scroll beats size up size down change color hide chords drawings
tab show chords e-chords YouTube Clip e-chords hide all tabs e-chords go to top tab

share