Coal Chamber

Alienate Me

Coal Chamber

tabs

save to print version add songbook text version e-mail correct tuner
chordsukulelecavacokeyboardtabbassdrumsharmonicaflute Guitar Pro
close

there isn't a video lesson for this song

chords

Alienate Me

	  		Transcribed by: jason johnson 
Email: [email protected] 
 
Tuning: B (B,E,A,D,G,B) 
 
<>= harmonic 
 
 
intro/verse: some effect, don't know what 
------------------------------------------------------------------------------ 
-2-0-3-0-0-2-0-3-0-0-2-0-3-0-0-2-0-<5>---------------------------------------- 
------------------------------------------------------------------------------ 
------------------------------------------------------------------------------ 
------------------------------------------------------------------------------ 
------------------------------------------------------------------------------ 
                                                                               
Inro 2: 
------------------------------------------------------------------------------ 
------------------------------------------------------------------------------ 
------------------------------------------------------------------------------ 
-----------------------------------5------------------------------------------ 
-----------------------------------5------------------------------------------ 
-2-0-3-0-0-2-0-3-0-0-2-0-3-0-0-2-0-3------------------------------------------ 
                                                                               
 
here we go!: 
------------------------------------------------------------------------------ 
------------------------------------------------------------------------------ 
------------------------------------------------------------------------------ 
-22-33-23-23-23-22-3---------------------------------------------------------- 
-22-33-23-23-23-22-3---------------------------------------------------------- 
-00-11-01-01-01-00-1---------------------------------------------------------- 
                                                                               
                                                                               
2:10: 
------------------------------------------------------------------------------ 
------------------------------------------------------------------------------ 
------------------------------------------------------------------------------ 
-22-xx--2--2-2-2-------------------------------------------------------------- 
-22-xx--2--2-2-2-------------------------------------------------------------- 
-00-xx--0--0-0-0-------------------------------------------------------------- 
 
 
2:19 
------------------------------------------------------------------------------ 
------------------------------------------------------------------------------ 
------------------------------------------------------------------------------ 
-7--7-5--7-3----7--7-5--7-3--------------------------------------------------- 
-7--7-5--7-3----7--7-5--7-3--------------------------------------------------- 
-5--5-3--5-1----5--5-3--5-1---------------------------------------------------
		  

Full key step upFull key step up
Half key step upHalf key step up
Half key step downHalf key step down
Full key step downFull key step down
hide glossary

See also:

tabs Deftones - Change tabs Velvet Revolver - Fall to pieces tabs Darkness - I Believe in a Thing Called Love tabs Lifehouse - Blind Acoustic tabs Queens Of The Stone Age - Go with the Flow tabs Black Crowes - Remedy
e-chords

Other versions:

tabs Coal Chamber - Alienate Me
auto scroll beats size up size down change color hide chords drawings
tab show chords e-chords YouTube Clip e-chords hide all tabs e-chords go to top tab

share