Coal Chamber

Rowboat

Coal Chamber

bass

save to print version add songbook text version e-mail correct tuner
chordsukulelecavacokeyboardtabbassdrumsharmonicaflute Guitar Pro
close

there isn't a video lesson for this song

chords

Rowboat

	  		
 Row Boat
Album: Dark Days
Tabbed by: slayerkittiechick666
E-mail: [email protected]

100% correct!


Tuning: C G C F A D (low to high)

Play this riff between each line.

"Love is in the air..."
C|--------------------
G|--------------------
C|-0-1---------------- (just repeat this)



"Blinding me with smoke..."
C|------------------------
G|------------------------
C|-0-1-------------------- (just repeat this)



"Get out of my ..."
C|------------------------------
G|------------------------------
C|-0-0-0-0-1-1-0-2-1-0-1-2-0-2-0


"Get out... get out..."
C|---------------------
G|---------------------
C|-0-1-0-1-0-1---------

		  

See also:

bass Marcus Miller - Mr. pastorius bass Chevelle - Closure bass Cream - Crossroads bass The Clash - I Fought The Law bass Children Of Bodom - Every Time I Die bass Disturbed - Down With The Sickness (ver. 2)
e-chords

Other versions:

bass Coal Chamber - Rowboat bass Coal Chamber - Rowboat (ver. 2) bass Coal Chamber - Rowboat (ver. 3)
auto scroll beats size up size down change color hide chords drawings
tab show chords e-chords YouTube Clip e-chords hide all tabs e-chords go to top tab

share