Buckethead

Antenna

Buckethead

tabs

by  HUGO_RODRIGUES

save to print version add songbook text version e-mail correct tuner
chordsukulelecavacokeyboardtabbassdrumsharmonicaflute Guitar Pro
close

there isn't a video lesson for this song

chords

Antenna

Key:  E More
Antenna Key BB
Antenna Key CC
Antenna Key C#C#
Antenna Key DD(one step down)
Antenna Key D#D#(half step down)
Antenna Key EE(original key)
Antenna Key FF(half step up)
Antenna Key F#F#(one step up)
Antenna Key GG
Antenna Key G#G#
Antenna Key AA
Antenna Key A#A#
	  		

 Intro 

e|-12-h13p12------------------------------------------------| 
B|-----------15---------13--13--p12-10----12-13-------------| 
G|----------------------------------------------------------| 
D|----------------------------------------------------------| 
A|----------------------------------------------------------| 
E|----------------------------------------------------------| 

 Lead 
  00:11 
e|---------------------------|---------------------------|----------------------------|----------------------| 
B|---------------------------|---------------------------|----------------------------|----------------------| 
G|---------------------------|---------------------------|----------------------------|----------------------| 
D|---------10--10--------(10)|-10-\9--9------------------|-10-(h12/14)--14------12\10-|-10--\9----(10)-(10)--| 
A|-----12--------------------|-------------------12---12-|----------------------------|----------------------| 
E|-12------------------------|---------------------------|----------------------------|----------------------| 

e|-------||------------------|---------------------------|---------------------------------------------------| 
B|-------||------------------|---------------------------|---------------------------------------------------| 
G|----12-||-12-----------10--|-9-------------------------|---------------------------------------------------| 
D|-10----||------------------|-------------------10--\9--|---------------------------------------------------| 
A|-------||------------------|---------------------------|-12------------------------------------------------| 
E|-------||------------------|---------------------------|---------------------------------------------------| 


  00:44 
e|----||----12-----------12--|-10----------------10--|-8------(7)--7----------------|------------------------| 
B|----||-10------------------|-----------------------|----------------h8------------|------------------------| 
G|---9||---------------------|-----------------------|----------------------------9-|-------7--7-------------| 
D|-10-||---------------------|-----------------------|------------------------10----|------9-----------------| 
A|----||---------------------|-----------------------|------------------------------|------------------------| 
E|----||---------------------|-----------------------|------------------------------|------------------------| 

e|-------||-------------------|--------------------------|---------------------------------------------------| 
B|-------||-------------------|-----------------------12-|-10wp----------------------------------------------| 
G|-9/12--||-12-----------9\7--|-------------------12--12-|---------------------------------------------------| 
D|-------||-------------------|-10-10---------10---------|---------------------------------------------------| 
A|-------||-------------------|--------------------------|---------------------------------------------------| 
E|-------||-------------------|--------------------------|---------------------------------------------------| 


  01:18 
e|-12------------------12--15-|-15--------15-------------|-12-----------------------|------------------------| 
B|------10-------10-13--------|-----------------------13-|---------13\-12-----------|------------------------| 
G|----------------------------|--------------------14----|-------------------12--12-|12---------------12---14| 
D|----------------------------|--------------------------|--------------------------|--------------14--------| 
A|----------------------------|--------------------------|--------------------------|------------------------| 
E|----------------------------|--------------------------|--------------------------|------------------------| 

e|-------------------------|--------------------------|------------------------------------------------------| 
B|-------------------------|--------------------------|------------------10---10--12---12--13--12--13/15-----| 
G|-------------------------|-------------9------------|-----------9----9----9--------9-----------------------| 
D|-12------14-----------10\|-9-------10------------9--|-7----7h10---10---------------------------------------| 
A|-------------------------|------------------10------|------------------------------------------------------| 
E|-------------------------|--------------------------|------------------------------------------------------| 


  01:51 
e|----||------------------12-|----------------------|------(12)12-12-----------|-----------------------------| 
B|----||---------------------|-13-------------------|-----------------------13-|-13--------------------------| 
G|-14-||-14wp---------14-----|------------------(14)|-14--------------14-------|------(12)12----12/14-\12----| 
D|----||---------------------|----------------------|--------------------------|--------------------------15-| 
A|----||---------------------|----------------------|--------------------------|-----------------------------| 
E|----||---------------------|----------------------|--------------------------|-----------------------------| 

e|---------------------------|-------------------------------|-----------------------------------------| 
B|--------------17---\15--17-|-17----------------------------|-----------------------------------------| 
G|-----17--------------------|------(19)-------17p16\15------|--12/14----------------------------------| 
D|-15--------15--------------|---------------------------15--|-----------------------------------------| 
A|---------------------------|-------------------------------|-----------------------------------------| 
E|---------------------------|-------------------------------|-----------------------------------------|  


  02:24 
e|-5-|--------------------3-|---------------------5|--------------------------|-----------------------------| 
B|--5|---------------------3|----------------------|5-------------------------|-----------------------------| 
G|---|5---------------------|4---------------------|-5------------------------|-----------------------------| 
D|---|-7--------------------|-5--------------------|--7-----------------------|-----------------------------| 
A|---|----------------------|----------------------|--------------------------|-----------------------------| 
E|---|----------------------|----------------------|--------------------------|-----------------------------| 

e|----------------------------|--------------------------|----------0--------------------------------| 
B|-------6--------------------|--------------------------|-------1-----------------------------------| 
G|----5-----------------------|-0---------------5---\4---|2----4------------------------(9)---(9)----| 
D|---7------------------------|--------------------------|-------------------------------------------| 
A|--8-------------------------|--------------------------|-------------------------------------------| 
E|-8-----------------------8--|--------------------------|-------------------------------------------| 
  

  02:58 
e|----------------------------|--------------------------|--------------------------|------------------------| 
B|----8-----------------------|---------8--8-------------|-12------(13)-------------|-------------13/15------| 
G|-9---------9p7----9---------|-9---------------------9--|--------------12------14--|-14--14/16--------------| 
D|--------------------7-------|--------------------------|--------------------------|------------------------| 
A|----------------------------|--------------------------|--------------------------|------------------------| 
E|----------------------------|--------------------------|--------------------------|------------------------| 

e|-12-||-12-------------12--|-12----12-----------------|------------------------------------------| 
B|----||--------------------|------------------13-12---|----------------12wp----------------------| 
G|----||--------------------|--------------------------|-14------------14-------------------------| 
D|----||--------------------|--------------------------|----14--------14--------------------------| 
A|----||--------------------|--------------------------|-------15---------------------------------| 
E|----||--------------------|--------------------------|------------------------------------------| 


  03:32 
e|-------------------------12-|--------------------------|---------12---------------|------------------------| 
B|----------------------------|-13-----------------------|-----------------------13-|-13---------------------| 
G|--------------------14------|----------------------14--|-14-------------14--------|--------12-12-----------| 
D|----------------------------|--------------------------|--------------------------|------------------------| 
A|----------------------------|--------------------------|--------------------------|------------------------| 
E|----------------------------|--------------------------|--------------------------|------------------------| 

e|---------------||-------------------------|-------------------------|--------------------------------------| 
B|---------------||-----13--------13wp------|------13\12-----12--13---|--------12----------------------------| 
G|-12/14--\12----||-------------------------|-------------------------|------------14------------------------| 
D|------------15-||-15--------15------------|---15---------15---------|-(12/14)--------14--------------------| 
A|---------------||-------------------------|-------------------------|----------------------14--12------12--| 
E|---------------||-------------------------|-------------------------|------------------------------12------| 


************************************ 

| wp  Whammy Pedal 
|(n)  Ghost note 
| h   Hammer-on 
| p   Pull-off 
| r   Release 
| /   Slide up 
| \   Slide down 

************************************ 
		  

See also:

tabs Shiny Toy Guns - When Did This Storm Begin tabs Celldweller - The Wings Of Icarus tabs Peaches - Sucker tabs Buckethead - Four Rivers tabs Shiny Toy Guns - Ricoche tabs To Mars and Back Again - Follow the yellow brick road
e-chords

Other versions:

tabs Colour Haze - Antenna tabs Buckethead - Antenna
auto scroll beats size up size down change color hide chords drawings
tab show chords e-chords YouTube Clip e-chords hide all tabs e-chords go to top tab

share