Brad Paisley

Mud on the tires/intro.

Brad Paisley

tabs Intermediate intermediate

by  EUROPEU

save to print version add songbook text version e-mail correct tuner
chordsukulelecavacokeyboardtabbassdrumsharmonicaflute Guitar Pro
close

there isn't a video lesson for this song

chords

Mud on the tires/intro.

	  		e --------------------------------------------------------- 
b --------1-------------------3---------------------------- 
g ------0-------0--0h2-0----------------------------------- 
d --0h2-----0h2----0-------0------------------------------- 
a --3--------------2-------2------------------------------- 
e --------------------------------------------------------- 
 
 
e --------------------------------------------------------- 
b ------1-1------------------------------------------------ 
g -----------0-----0----------0---------------------------- 
d -----------0h2-2----2h3-2-2------------------------------ 
a ---0----------------------------------------------------- 
e --------------------3------------------------------------ 
 
 
e --------------------------------------------------------- 
b --------------------------------------------------------- 
g ------------0-----0h2---0-------------------------------- 
d --------3-------3-----3-----3---------------------------- 
a ------3-------3------------------------------------------ 
e ---1------1---------------1------------------------------ 
 
 
e --------------------------------------------------------- 
b -------------1---0--------------------------------------- 
g -------0------------------------------------------------- 
d -----0---0h2-----0--------------------------------------- 
a --------------------------------------------------------- 
e ---3----------------------------------------------------- 
 
 
 
 
	 
 

		  

See also:

tabs Caedmon's Call - April Showers tabs Jars of Clay - Like A Child tabs Hillsong - What the world will never take tabs Building 429 - Glory Defined (ver. 2) tabs Flatt & Scruggs - Cripple Creek tabs Hillsong - Hillsongs Hosanna
e-chords

Other versions:

tabs Brad Paisley - Mud on the tires/intro.
auto scroll beats size up size down change color hide chords drawings
tab show chords e-chords YouTube Clip e-chords hide all tabs e-chords go to top tab

share