Blink 182

Stay Together For The Kids (ver. 4)

Blink 182

tabs Expert expert

by  LOSER

save to print version add songbook text version e-mail correct tuner
chordsukulelecavacokeyboardtabbassdrumsharmonicaflute Guitar Pro
close

there isn't a video lesson for this song

chords

Stay Together For The Kids (ver. 4)

	  		blink -182 
Stay Together For The Kids 
by: Murilo Bellatini 
ICQ: 297601435 
 
Esta tablatura mostra um modo mais fácil de tocar a música, mas também correto! 
São as mesmas notas com a diferença de onde são tocadas, sem aumento de tom  
nem nada. Também os acordes para o refrão estão corretos. Bem, confiram: 
 
Intro(2x) 
E|----------------------------------------------------------------------| 
B|----------------------------------------------------------------------| 
G|----------------------------------------------------------------------| 
D|----0---7----4------0---7-----4------0---2-----5------0-2-4-5-4-2-0---| 
A|--5---5--5-5--5---4---4--4-4---4---2---2---2-2---2--0-----------------| 
E|----------------------------------------------------------------------| 
 
Verso(2x) 
E|------------------------------------------------------------------| 
B|-------3-------3-------3-------3-------3-------3-------3-------3--| 
G|-------2-------2-------2-------2-------2-------2-------2-------2--| 
D|--0-0-----0-0-----0-0-----0-0-------------------------------------| 
A|----------------------------------3-3-----3-3-----3-3-----3-3-----| 
E|------------------------------------------------------------------| 
 
E|------------------------------------------------------------------| 
B|-------3-------3-------3-------3-------5-------5-------2-------2--| 
G|-------2-------2-------2-------2-------2-------2-------2-------2--| 
D|------------------------------------------------------------------| 
A|--0-0-----0-0-----0-0-----0-0-----0-0-----0-0-----0-0-----0-0-----| 
E|------------------------------------------------------------------| 
 
Refrão 
Use estes acordes, o segundo é um pouco mais demorado de pegar, mas naum é difícil! 
Só dê uma treinada que em pouco tempo você conseguirá. 
 
            G                               D7M 
E|---3-3-3-3-3-3-3-3-3-3-3-3-3-3-3-33--2-2-2-2-2-2-2-2-2-2-2-2-2-2------| 
B|---3-3-3-3-3-3-3-3-3-3-3-3-3-3-3-33--2-2-2-2-2-2-2-2-2-2-2-2-2-2------| 
G|---4-4-4-4-4-4-4-4-4-4-4-4-4-4-4-33--2-2-2-2-2-2-2-2-2-2-2-2-2-2------| 
D|---5-5-5-5-5-5-5-5-5-5-5-5-5-5-5-44--4-4-4-4-4-4-4-4-4-4-4-4-4-4------| 
A|---5-5-5-5-5-5-5-5-5-5-5-5-5-5-5-55--5-5-5-5-5-5-5-5-5-5-5-5-5-5-5-5--| 
E|---3-3-3-3-3-3-3-3-3-3-3-3-3-3-3-55--2-2-2-2-2-2-2-2-2-2-2-2-2-2-0-2--| 
 
Intro(2x) 
E|----------------------------------------------------------------------| 
B|----------------------------------------------------------------------| 
G|----------------------------------------------------------------------| 
D|----0---7----4------0---7-----4------0---2-----5------0-2-4-5-4-2-0---| 
A|--5---5--5-5--5---4---4--4-4---4---2---2---2-2---2--0-----------------| 
E|----------------------------------------------------------------------| 
 
Verso 2(2x) 
E|-----------------------------------------------------------------------------------| 
B|-----------------------------------------------------------------------------------| 
G|-----------------------------------------------------------------------------------| 
D|----7---7----7---7----7---7----7------7-----7---7----7------7----7---7----7------7-| 
A|--5---5-----5--5--------5----5------5---------5----5------7--------7----7------7---| 
E|--------------------7------------7--------5------------5-------5------------5------| 
 
Refrão 
 
            G                               D7M 
E|---3-3-3-3-3-3-3-3-3-3-3-3-3-3-3-33--2-2-2-2-2-2-2-2-2-2-2-2-2-2------| 
B|---3-3-3-3-3-3-3-3-3-3-3-3-3-3-3-33--2-2-2-2-2-2-2-2-2-2-2-2-2-2------| 
G|---4-4-4-4-4-4-4-4-4-4-4-4-4-4-4-33--2-2-2-2-2-2-2-2-2-2-2-2-2-2------| 
D|---5-5-5-5-5-5-5-5-5-5-5-5-5-5-5-44--4-4-4-4-4-4-4-4-4-4-4-4-4-4------| 
A|---5-5-5-5-5-5-5-5-5-5-5-5-5-5-5-55--5-5-5-5-5-5-5-5-5-5-5-5-5-5-5-5--| 
E|---3-3-3-3-3-3-3-3-3-3-3-3-3-3-3-55--2-2-2-2-2-2-2-2-2-2-2-2-2-2-0-2--| 
 
Bem, espero que você consiga tirar essa cifra do jeito certo pois tenho quase certeza que 
ela está quase 100%! 
 
Muito obrigado, 
Murilo Bellatini 

		  

Full key step upFull key step up
Half key step upHalf key step up
Half key step downHalf key step down
Full key step downFull key step down
hide glossary

See also:

tabs Green Day - 21 Guns tabs Green Day - Macy's Day Parade tabs Blink 182 - All The Small Things (Original) tabs Blink 182 - Down tabs Blink 182 - Dammit tabs Blink 182 - All the small things (ver. 2)
e-chords

Other versions:

tabs Blink 182 - Stay Together For the Kids tabs Blink 182 - Stay together for the kids (acoustic) tabs Blink 182 - Stay together for the kids (ver. 2) tabs Blink 182 - Stay Together For The Kids (ver. 4) tabs Blink 182 - Stay together for the kids (ver. 5)
auto scroll beats size up size down change color hide chords drawings
tab show chords e-chords YouTube Clip e-chords hide all tabs e-chords go to top tab

share