Blink 182

Stay together for the kids (ver. 2)

Blink 182

tabs

by  LUCIANO)SK8(

save to print version add songbook text version e-mail correct tuner
chordsukulelecavacokeyboardtabbassdrumsharmonicaflute Guitar Pro
close

there isn't a video lesson for this song

chords

Stay together for the kids (ver. 2)

	  		 
  D                 C#                B                 A 
e|-----------------|-----------------|-----------------|-----------------| 
B|-----------------|-----------------|-----------------|-----------------| 
G|-----------------|-----------------|-----------------|-----------------| 
D|---0---7---0-4-0-|---0---7---0-4-0-|---0---4---0-5-4-|---0---2-5-4-2-0-| 
A|-5---5---5-------|-4---4---5-------|-2---2---2-------|-0---0-----------| 
E|-----------------|-----------------|-----------------|-----------------| 
 
Verse 1 
"It's hard to wake up..."  "It's so pathetic it makes no sense at all" 
e|--------------|          e|--------------|--------------| 
B|--------------|          B|--------------|--------------| 
G|---7---7---7--|          G|--------------|---7---7---7--|  
D|---7---7---7--|          D|---7---7---7--|---7---7---7--| 
A|-5---5---5----|          A|---7---7---7--|-5---5---5----| 
E|--------------|          E|-5---5---5----|--------------| 
 
"I'm ripe with things..."   "Could fix this home..." 
e|--------------|          e|--------------|--------------| 
B|--------------|          B|--------------|--------------| 
G|---7---7---7--|          G|--------------|---7---7---7--|  
D|---7---7---7--|          D|---7---7---7--|---7---7---7--| 
A|-5---5---5----|          A|---7---7---7--|-5---5---5----| 
E|--------------|          E|-5---5---5----|--------------| 
 
Chorus 
"So here's your holiday..." 
   G5        F#5        
e|-------------------------------------------- 
B|-------------------------------------------- 
G|-------------------------------------------- 
D|--5-5-5-5--4-4-4-4-------------------------- 
A|--3-3-3-3--2-2-2-2-------------------------- 
E|--3-3-3-3--2-2-2-2-------------------------- 
 
 *note* playing D5 instead of F#5 sounds good too, *note* 
 *note*     but F#5 is what is actually used       *note* 
 
Intro 
 
Verse 2 
"Their anger hurts..."  "They never solve them it makes no sense at all" 
e|--------------|          e|--------------|--------------| 
B|--------------|          B|--------------|--------------| 
G|---7---7---7--|          G|--------------|---7---7---7--|  
D|---7---7---7--|          D|---7---7---7--|---7---7---7--| 
A|-5---5---5----|          A|---7---7---7--|-5---5---5----| 
E|--------------|          E|-5---5---5----|--------------| 
 
"I see them everyday..."   "its what she wants than why's there so much pain" 
e|--------------|          e|--------------|--------------| 
B|--------------|          B|--------------|--------------| 
G|---7---7---7--|          G|--------------|---7---7---7--|  
D|---7---7---7--|          D|---7---7---7--|---7---7---7--| 
A|-5---5---5----|          A|---7---7---7--|-5---5---5----| 
E|--------------|          E|-5---5---5----|--------------| 
 
Chorus 
 
Bridge 
 
e|--------------| 
B|--------------| 
G|--7--7--7--9--| 
D|--5--5--5--9--| 
A|--5--5--5--7--| 
E|--------------| 
 
Chorus (w/no vocals) 
 
Chorus x2 (w/ "It's not right) 
 
Ending 
e|-----| 
B|-----| 
G|-----| 
D|--5--| 
A|--3--| 
E|--3--| 
		  

Full key step upFull key step up
Half key step upHalf key step up
Half key step downHalf key step down
Full key step downFull key step down
auto scroll beats size up size down change color hide chords drawings
tab show chords e-chords YouTube Clip e-chords hide all tabs e-chords go to top tab

share