Blink 182

home > Blink 182

Stay Together For the Kids Tab

Blink 182

Difficulty: BeginnerBeginner

by vejota

tuner correct add songbook print version text version save to e-mail
chordsukulelecavacokeyboardtabbassdrummharmonicsflute Guitar Pro
chords

Stay Together For the Kids

Year: 2001 - Album: Take off Your Pants and Jacket

(Tom DeLonge)

  		
Intro (2x)


D|-----0-----7-----0--4--0-------0-----7-----0--4--0---
A|---5-----5-----5-------------4-----4-----4-----------

                                                       

-----0-----4-----4--5--4-------2----4--5--4--2--0---|
--2-----2-----2-------------0-----------------------|



VERSO
G|---------7-----------7-------------7-----------7-----|
D|---------7-----------7-------------7-----------7-----|
A|---5--5-----5--5--5-----5----5--5-----5--5--5-----5--|


G|--------7-----------7-------------7-----------7-----|
D|--------7-----------7-------------7-----------7-----|
A|----------------------------------------------------|
E|--7--7-----7--7--7-----7----7--7-----7--7--7-----7--|

G|-------7-----------7-------------7-----------7-----|
D|--------7-----------7-------------7-----------7-----|
A|--0--0-----0--0--0-----0----0--0-----0--0--0-----0--|


G|--------9-----------9-------------6-----------7------|
D|--------7-----------7-------------7-----------7------|
A|--0--0-----0--0--0-----0----0--0-----0--0--0-----0---|
E|-----------------------------------------------------|

REFRÃO:
A|---5-|-4--|
E|---3-|-2--|

No Refrão fica alternando entre esses dois acordes

Repete intro, verso e refrão

Solo (3x) (Entra depois do segundo refrão)

D|-7~---7---7-----7---7-----7---7-----7---7------------------------------
A|-5~-----5----5----5----5----5----5----5--------------------------------
Repete Refrão
	  

Search Paypal
auto scroll beats size up size down change color hide chords drawings
tab show chords e-chords YouTube Clip e-chords hide all tabs e-chords go to top tab