Blink 182

home > Blink 182

Carousel - ( intro ) Tab

Blink 182

Difficulty: ExpertExpert

by joe%5Fmatheus

tuner correct add songbook print version text version save to e-mail
chordsukulelecavacokeyboardtabbassdrumsharmonicsflute Guitar Pro
chords

Carousel - ( intro )

  		Carousel   -   Blink 182    
 
E|--------------------------------------------------------------------| 
B|--------------------------------------------------------------------| 
G|--------------------------------------------------------------------| 
D|-----4-4-5-7-5-4----------------------------------------------------| 
A|---5-------------5---4-4-5-7-5-4-----7-7-9-10-9-7-9-------5-----5---| 
E|-------------------5-------------5/7------------------3-3---3-3-----| 
 
E|--------------------------------------------------------------------| 
B|--------------------------------------------------------------------| 
G|--------------------------------------------------------------------| 
D|-----4-4-5-7-5-4----------------------------------------------------| 
A|---5-------------5---4-4-5-7-5-4-----7-7-9-10-9-7-9---5-5-5-5-5-5---| 
E|-------------------5-------------5/7------------------3-3-3-3-3-3---| 
 
 
By Joe and matheus.....!!!!     xD 

	  

Search Paypal
auto scroll beats size up size down change color hide chords drawings
tab show chords e-chords YouTube Clip e-chords hide all tabs e-chords go to top tab