Blink 182

home > Blink 182

Carousel Bass Tab

Blink 182

Difficulty: EasyEasy

by Cinho+Punk+182

tuner correct add songbook print version text version save to e-mail
chordsukulelecavacokeyboardtabbassdrummharmonicsflute Guitar Pro
chords

Carousel

Year: 1994 - Album: Cheshire Cat

(Blink 182)

  		Intro:  
G:-14-14-14--12-12-12--11-11- 
D:-0--0--0---0--0--0---0--0-- 
A:---------------------------   
E:--------------------------- 
 
G:-6-6-6--7-7-7--9-9- 
D:-7-7-7--7-7-7--7-7- 
A:-------------------     
E:------------------- 
 
G:---11-11-12-14-12-11------6-6-7-9-7-6-----9-9-11-12-11-9-11-----7------7---7- 
D:-0-------------------0-/7-------------79-------------------5-5----5-5---5--- 
A:----------------------------------------------------------------------------- 
E:----------------------------------------------------------------------------- 
 
G:---11-11-12-14-12-11------6-6-7-9-7-6-----9-9-11-12-12-11-11--7-7-7-7-7-7-7-- 
D:-0-------------------0/7-------------79----------------------5-5-5-5-5-5-5-- 
A:----------------------------------------------------------------------------- 
E:----------------------------------------------------------------------------- 
            
 
G:-11-11-11-11-11-11--9--9--9--9--9--9--11-11-11-11-11-11---7-7-7-7-7-7-7- 
D:-0--0--0--0--0--0---7--7--7--7--7--7---9--9--9--9--9--9---5-5-5-5-5-5-5- 
A:------------------------------------------------------------------------ 
E:------------------------------------------------------------------------ 
There is a certain rhythm to this part, but it's easy to figure out. 
 
Then its just guitar and drums and then the bass comes back and plays this 
 
G:-11-11-11-11-11-11--9--9--9--9--9--9--11-11-11-11-11-11---7-7-7-7-7-7-7- 
D:-0--0--0--0--0--0---7--7--7--7--7--7---9--9--9--9--9--9---5-5-5-5-5-5-5- 
A:------------------------------------------------------------------------ 
E:------------------------------------------------------------------------ 
 
G:-------------------|     ------------------------------------------------------ 
D:-------------------|     ------------------------------------------------------ 
A:5555-0000-2222-----| X 2 -5555-0000-222210-10-10-10-5555-0000-222210-12-10-9-  
E:---------------3333|     ------------------------------------------------------ 
 
Verse:  
G:------------------------------------------------------------- 
D:------------------------------------------------------------- 
A:-5-5-5-5-5-5-5----------------------------------------------- 
E:---------------5-5-5-5-5-5-5--7-7-7-7-7-7-7--3-3-3-3-3-3-3--- 
 
Chorus:  
G:---------------------------------------------- 
D:---------------------------------------------- 
A:-5-5-5-5---7-7-7-7---------------------------- 
E:---------------------5-5-5-5--3-3-3-3--------- 
 
after Chorus, before 2nd Verse 
G:------------------------- 
D:------------------------- 
A:5555-0000-2222----------- 
E:---------------3333------ 
 
G:------------------------------- 
D:------------------------------- 
A:-5555-0000-222210-12-10-9----- 
E:------------------------------- 
 
Then play the verse twice, and after that play this for the 2nd half of the second verse: 
 
G:-11-11-11-11-11-11--9--9--9--9--9--9--11-11-11-11-11-11--7-7-7-7-7-7-7- 
D:-0--0--0--0--0--0---7--7--7--7--7--7---9--9--9--9--9--9--5-5-5-5-5-5-5- 
A:----------------------------------------------------------------------- 
E:----------------------------------------------------------------------- 
Guitar solo: 
G:----------------------------------- 
D:----------------------------------- 
A:-5----------5---------------------- 
E:---5--7--3----5--7-7-7-7--3-3-3-3-- 
 
 
 
By: [email protected] 

	  

Search Paypal
auto scroll beats size up size down change color hide chords drawings
tab show chords e-chords YouTube Clip e-chords hide all tabs e-chords go to top tab