Blink 182

home > Blink 182

Carousel Tab

Blink 182

Difficulty: ExpertExpert

by vejota

tuner correct add songbook print version text version save to e-mail
chordsukulelecavacokeyboardtabbassdrummharmonicsflute Guitar Pro
chords

Carousel

Year: 1994 - Album: Cheshire Cat

(Blink 182)

  		InTrO:
G|-7-------------------------7---------------------------------------------
D|-7-4-5-5-4---9-4-5-5-4-----7-4-5-5-4---9-4-5-5-4-------------------------
A|-5---------7-9---------7-5-5---------7-9---------7-5-4-5-----------------
E|-------------7-------------------------7---------------------------------

G|-7-7-7-7-7--9-9-9-9-9-10-10-10-10-10--7-7-7-7-7--------------------------

Primeira parte do verso:
G|-7-------7-------|-7---7-------------------------------------------------
D|-7-7-9-5-7-7-9-5-|-7---7-------------------------------------------------
A|-5-7-9-5-5-7-9-5-|-5-4-5-4-5-5-7-5-4-5-4-5-4-5-4-5-4-5-7-5-4-2-0---------
E|---5-7-3---5-7-3-|-----------------------------------------------3-------

D|---------------------------------------------------0-0-4-0-0-7-5-4-0-----
A|-9-9-9-10-9-7-9-9-9-10-9-12-12-10-9-7-9-9-9-10-9-7-----------------------
 

   Verso:                Chorus:
G|-7---------        G|---7-5-------
D|-7-7-7-5---        D|---7-5-7-5---
A|-5-7-7-5---        A|---5-7-7-5---
E|---5-9-3---        E|-------5-3---

    
D|---4-5-7-5-4-------------------------------------------------------------
A|-5-----------5---4-5-7-5-4-----6-7-9-7-6-----2-3-5-3-2-------------------
E|---------------5-----------5-7-----------7-3-----------3-----------------

______________________________________________
Vejota p/ quem curte 182... e p/ Adriane B. C. 
por qm sou completamente apaixonado!!!
	  

Search Paypal
auto scroll beats size up size down change color hide chords drawings
tab show chords e-chords YouTube Clip e-chords hide all tabs e-chords go to top tab