Rage Against The Machine

home > Rage Against The M...

Killing In The Name Bass Tab

Rage Against The Machine

Difficulty: BeginnerBeginner

by pqnino2003

tuner correct add songbook print version text version save to e-mail
chordsukulelecavacokeyboardtabbassdrummharmonicsflute Guitar Pro
chords

Killing In The Name

Year: 1992 - Album: Rage Against the Machine

  		[email protected] 

Introdução 

G|-------------|-------------|        |-------------11-12-|-------------12h14-12-| 
D|-------------|-------------| x15    |-------11-12-------|-------11-12----------| 
A|-5~-5~-5~-5~-|-------6-6-6-|        |-------------------|----------------------| 
D|-------------|-0-0-0-------|        |-0-0-0-------------|-0-0-0----------------| 

Verso Principal 
|-------------------------| 
|---------3h4-------------| x12 
|----3h5------5-----------| 
|-0--------------0-2h3-2--| 

Pré Refrão 
|---------4---------3--------2--------------| 
|-------------------------------------------|  
|----3h5-------3h5------3h5-----------------| 
|-0---------0---------0--------0-2h3-2h3-2--| 

|---------4---------3--------2-----------| 
|----------------------------------------|  
|----3h5-------3h5------3h5-----3-3-3-3--| 
|-0---------0---------0------------------| 

|---------|       
|---------| x12 
|-5-5--5--| 
|---------| 

Refrão 
|------------------| 
|------------------| x8 
|-5-5--5--5-----3--| 
|-----------3-5----| 

Verso 2 
|-------------------------| 
|---------3h4-------------| x3 
|----3h5------5-----------| 
|-0--------------0-2h3-2--| 

Variação do verso 
|--------------------------------10--| 
|---------3h4-----------10-11-12-----|  
|----3h5-------10-11-12--------------| 
|-0----------------------------------| 

|-------------------------| 
|---------3h4-------------| x4 
|----3h5------5-----------| 
|-0--------------0-2h3-2--| 

Pré Refrão 
|---------4---------3--------2--------------| 
|-------------------------------------------|  
|----3h5-------3h5------3h5-----------------| 
|-0---------0---------0--------0-2h3-2h3-2--| 

|---------4---------3--------2-----------| 
|----------------------------------------|  
|----3h5-------3h5------3h5-----3-3-3-3--| 
|-0---------0---------0------------------| 

|---------|       
|---------| x12 
|-5-5--5--| 
|---------| 

Refrão 
|------------------| 
|------------------| 
|-5-5--5--5-----3--| x8 
|-----------3-5----| 

Solo Guitarra 
|------------------| 
|------------------| 
|-5-5--5--5-----3--| x3 
|-----------3-5----| 

|-----------------| 
|----------2-3-5--| 
|-5-5--5-5--------| 
|-----------------| 

|------------------| 
|------------------| 
|-5-5--5--5-----3--| x3 
|-----------3-5----| 

|-----------------| 
|----------2-3-5--| 
|-5-5--5-5--------| 
|-----------------| 

Junto com a guitarra 
|-17----14----12----10---7--5--12~| 
|---------------------------------| 
|----15----12-----10---8---5--5---| 
|---------------------------------| 

|-17----14----12----10---7--5--7~| 
|--------------------------------| 
|----15----12-----10---8---5--5--| 
|--------------------------------| 

|-17h19-17h19-17h19-17h19-17h19-17h19-| 
|-------------------------------------|   
|-------------------------------------| 
|-------------------------------------| 

|------------------------------------------| 
|------------------------------------------| 
|-10h12-10h12-10h12--10h12-10h12-----------| 
|------------------------------------------| 

|-17~~~~-19~~~~-13~~~~~~~~--------| 
|---------------------------------| 
|---------------------------------| 
|---------------------------------| 


|--------------------------------| 
|--------------------------------| 
|-5>--7>--8>-10>-12>-13>-15>-17>-| 
|--------------------------------| 

|------------------| 
|------------------| 
|-5-5--5--5-----3--|  
|-----------3-5----| 

|-----------------| 
|----------2-3-5--| 
|-5-5--5-5--------| 
|-----------------| 

Final 
|----|-------------| 
|----|-------------|    
|-3>-|-------6-6-6-| 
|----|-0-0-0-------| 
	  

Search Paypal
auto scroll beats size up size down change color hide chords drawings
tab show chords e-chords YouTube Clip e-chords hide all tabs e-chords go to top tab