The Wonders

That Thing You Do

The Wonders

bass Expert expert

save to print version add songbook text version e-mail correct tuner
chordsukulelecavacokeyboardtabbassdrumsharmonicaflute Guitar Pro
close

there isn't a video lesson for this song

chords

That Thing You Do

(A. Schlesinger)

	  		Comeša a bateria, entra a guitarra e na sequencia o Baixo.

G|---------------------------|---------------------|-------------|
D|------------------------2--|---------------------|-------------|
A|---------------2--2--4-----|---------4--------6--|-------------|
E|---0--0--3--4--------------|---5--5-----7--7-----|-------------|
                                                                 
G|-------------------------|---------------------|-----------------|
D|----------------------2--|---------------------|-----------------|
A|-------------2--2--4-----|---------4--------6--|-----------------|
E|-0--0--3--4--------------|---5--5-----7--7-----|-----------------|
                                                                 
G|-------------------|---------------|---------------------|-------|
D|-------------1--2--|---4-----4-----|---4-----4--4--2-----|-------|
A|-4--4--4--4--------|------4--------|------4-----------4--|-------|
E|-------------------|---------------|---------------------|-------|
                                                                 
G|--------------------|---------------------------|----------------|
D|--------------------|------------------------2--|----------------|
A|-------4---------6--|---------------2--2--4-----|----------------|
E|-5--5-----7--7------|---0--0--3--4--------------|----------------|
                                                                 
G|-------------------|---------------------------|-----------------|
D|-------------------|------------------------2--|-----------------|
A|-------4--------6--|---------------2--2--4-----|-----------------|
E|-5--5-----7--7-----|---0--0--3--4--------------|-----------------|
                                                                 
G|-------------------|-----------------------|------------|--------|
D|-------------------|----------------1---2--|---4-----4--|--------|
A|-------4--------6--|---4--4--4--4----------|------4-----|--------|
E|-5--5-----7--7-----|-----------------------|------------|--------|
                                                                 
G|----------------------|-------------------|----------------------|
D|----------------------|-------------------|----------------------|
A|-5--5--5--5-----------|-------------------|----------------------|
E|----------------------|---7--5--3--7---7--|----------------------|
                                                                 
G|------------------------------|-------------------------|--------|
D|-----------------1---2--------|---4---------4-----------|--------|
A|----4--4----------------------|----------4--------------|--------|
E|------------------------------|-------------------------|--------|
                                                                 
G|-------------|---------------|---------------|-------------------|
D|-------------|---------------|---------------|-------------------|
A|-7--7--7--7--|---------------|---7-----7--7--|-------------------|
E|-------------|---5--7--3--0--|------5--------|-------------------|
                                                                 
G|--------------------|------------------------|-------------------|
D|--------------------|------------------------|-------------------|
A|-----------------6--|---7--------------4--7--|-------------------|
E|-5--5--4---7--7-----|------5--5--7--7--------|-------------------|
                                                                 
G|------------------------|---------------------------|------------|
D|------------------------|------------------------2--|------------|
A|------------------------|---------------2--2--4-----|------------|
E|---7--7--7--7--7--7--7--|---0--0--3--4--------------|------------|

G|----------------------|---------------------------|--------------|
D|----------------------|------------------------2--|--------------|
A|-------4--------6-----|---------------2--2--4-----|--------------|
E|-5--5-----7--7--------|---0--0--3--4--------------|--------------|

G|-------------------|---------------------|---------------|-------|
D|-------------------|---------------1--2--|---4-----4-----|-------|
A|-------4--------6--|---4--4--4--4--------|------4--------|-------|
E|-5--5-----7--7-----|---------------------|---------------|-------|
                                                                 
G|----------------------------|-------------------------|----------|
D|-4-----4--4--2--------------|-------------------------|----------|
A|----4-----------4-----------|---------4---------6-----|----------|
E|----------------------------|---5--5-----7--7---------|----------|

G|-------------------------|------------------------|--------------|
D|----------------------2--|------------------------|--------------|
A|-------------2--2--4-----|---------4--------6-----|--------------|
E|-0--0--3--4--------------|---5--5-----7--7--------|--------------|

G|-------------------------|---------------------|-----------------|
D|----------------------2--|---------------------|-----------------|
A|-------------2--2--4-----|---------4--------6--|-----------------|
E|-0--0--3--4--------------|---5--5-----7--7-----|-----------------|

G|---------------------|------------|------------------------|-----|
D|--------------1---2--|---4-----4--|------------------------|-----|
A|-4--4--4--4----------|------4-----|---5--5--5--5-----------|-----|
E|---------------------|------------|------------------------|-----|

G|-----------------|--------------------------------|--------------|
D|-----------------|-------------------1---2--------|--------------|
A|-----------------|------4--4----------------------|--------------|
E|-7--5--3--7---7--|--------------------------------|--------------|

G|--------------------|---------------|---------------|------------|
D|-4---------4--------|---------------|---------------|------------|
A|--------4-----------|---7--7--7--7--|---------------|------------|
E|--------------------|---------------|---5--7--3--0--|------------|

G|-------------|----------------------|----------------------------|
D|-------------|----------------------|----------------------------|
A|-7-----7--7--|-------------------6--|----------------------------|
E|----5--------|---5--5--4---7--7-----|----------------------------|

G|----------------------|--------------------------|---------------|
D|----------------------|--------------------------|---------------|
A|-7--------------4--7--|--------------------------|---------------|
E|----5--5--7--7--------|-----7--7--7--7--7--7--7--|---------------|
                                                                 

Interlude - " I don┤t ask a lot girl..."
G|-------------------------|--------------------------|------------|
D|-------------------------|--------------------------|------------|
A|-------------------------|--------------------------|------------|
E|-5--5--5--5--5--5--5--5--|--5--5--5--5--5--5--5--5--|------------|

G|-------------------------|--------------------------|------------|
D|-------------------------|--------------------------|------------|
A|-4--4--4--4--4--4--4--4--|--4--4--4--4--4--4--4--4--|------------|
E|-------------------------|--------------------------|------------|

G|-------------------------|--------------------------|------------|
D|-4--4--4--4--4--4--4--4--|--4--4--4--4--4--4--4--4--|------------|
A|-------------------------|--------------------------|------------|
E|-------------------------|--------------------------|------------|

G|-------------------------|---------------------------|-----------|
D|-------------------------|---------------------------|-----------|
A|-------------------------|---------------------------|-----------|
E|-7--7--7--7--7--7--7--7--|---8--8--8--8--8--8--8--8--|-----------|

                           Guitar solo                        
G|------------------------|---------------------------|------------|
D|------------------------|------------------------2--|------------|
A|------------------------|---------------2--2--4-----|------------|
E|7--7--7--7--7--7--7--7--|---0--0--3--4--------------|------------|
                                                                 
G|------------------|--------------------------|-------------------|
D|------------------|-----------------------2--|-------------------|
A|------4--------6--|--------------2--2--4-----|-------------------|
E|5--5-----7--7-----|--0--0--3--4--------------|-------------------|
                                                                 
G|------------------|--------------------|-----------|-------------|
D|------------------|--------------1--2--|--4-----4--|-------------|
A|------4--------6--|--4--4--4--4--------|-----4-----|-------------|
E|5--5-----7--7-----|--------------------|-----------|-------------|

G|------------------|---------------------------|------------------|
D|4-----4--4--2-----|---------------------------|------------------|
A|---4-----------4--|--------4---------6--------|------------------|
E|------------------|--5--5-----7--7------------|------------------|

G|-------------------------|------------------------|--------------|
D|----------------------2--|------------------------|--------------|
A|-------------2--2--4-----|---------4--------6-----|--------------|
E|-0--0--3--4--------------|---5--5-----7--7--------|--------------|

G|-------------------------|---------------------|-----------------|
D|----------------------2--|---------------------|-----------------|
A|-------------2--2--4-----|---------4--------6--|-----------------|
E|-0--0--3--4--------------|---5--5-----7--7-----|-----------------|

G|---------------------|------------|------------------------|-----|
D|--------------1---2--|---4-----4--|------------------------|-----|
A|-4--4--4--4----------|------4-----|---5--5--5--5-----------|-----|
E|---------------------|------------|------------------------|-----|

G|--------------------|-----------------------|------------|-------|
D|--------------------|----------------1---2--|---4-----4--|-------|
A|--------------------|---4--4----------------|------4-----|-------|
E|-7--5--3--7---7-----|-----------------------|------------|-------|
 
G|-------------------|-------------------|------------------|------|
D|-------------------|-------------------|------------------|------|
A|-7--7--7--7--------|-------------------|---7-----7--7-----|------|
E|-------------------|---5--7--3---0-----|------5-----------|------|

G|-----------------------|---------------|-------------------------|
D|-----------------------|---------------|-------------------------|
A|-------4------------6--|---7-----7--7--|-------------------------|
E|-5--5---------7--7-----|------5--------|-------------------------|

G|-----------------------|------------------|----------------------|
D|-----------------------|------------------|----------------------|
A|--------------------6--|---7-----7--7-----|----------------------|
E|-5--5--4------7--7-----|------5-----------|----------------------|

G|-------------------|------------|-----------------||-------------|
D|-------------------|------------|-----------2--2--||-------------|
A|-------------------|------------|--------2--------||-------------|
E|-5--3--5--5--------|---5--3--0--|--0--3-----------||-------------|
		  

See also:

bass Creed - With arms wide open bass Guns N' Roses - Don't Cry bass Guns N' Roses - Bad Apples bass Aerosmith - I Don't Want To Miss A Thing bass Foo Fighters - Leran to Fly bass Fatboy Slim - Praise You
e-chords

Other versions:

bass New Found Glory - That Thing You Do bass The Wonders - That Thing You Do
auto scroll beats size up size down change color hide chords drawings
tab show chords e-chords YouTube Clip e-chords hide all tabs e-chords go to top tab

share