Rage Against The Machine

home > Rage Against The M...

Killing In The Name Tab

Rage Against The Machine

Difficulty: nolevelnolevel

tuner correct add songbook print version text version save to e-mail
chordsukulelecavacokeyboardtabbassdrummharmonicsflute Guitar Pro
chords

Killing In The Name

Year: 1992 - Album: Rage Against the Machine

	   
INTRO (Pode ser tocada em afinação padrão, mas existem algumas artimanhas). 
 
Na intro, toque o acorde de Ré na casa 5, mas tocando o Lá ao mesmo tempo para dar 
mais peso no som. 
 
e----5-------------| 
B----5-------------| 
G----7-------------| 
D----7-------------| 
A----5-------------| 
E----5-------------| <--- nota que vai realçar o som 
 
    (4 vezes) 
 
 
-----------------|-(entra guitarra)-|----------------| 
-----------------|-------------7-8--|--------7p8r9---| 
-------(só baixo)|--7-7-7--6-7------|-7-7-7----------| 
-----------------|--7-7-7-----------|-7-7-7----------| 
---------6--6--6-|--5-5-5-----------|-5-5-5----------| 
-0--0--0---------|--5-5-5-----------|-5-5-5----------| 
 
  (4 vezes)          (3 vezes)      (1 vez)                
                 {              8 vezes              } 
 
RIFF 
 
Some of those that work forces 
are the same that burn crosses.. etc 
 
------------------|----------------------------------| 
------------------|----------------------------------| 
-7-7-7--8-8-8-----|----------------------------------| 
-7-7-7--8-8-8-----|---------3h4----------------------| 
-5-5-5--6-6-6-----|5--3h5-5-------5---5-5/7-7-5------| 
-5-5-5--6-6-6-----|-------------------5-7/7-7-5------| 
 
 
ANTES DO REFRÃO 
 
--------------------------------------------------------| 
--------------------------------------------------------| 
--------------------------------------------------------| 
-------------4---------------3----------------2---------| 
-----3h5-----------3h5--------------3h5-----------------| 
-0---------------0-----------------0 -------------------| 
 
 
REFRÃO  
 
Now ya do what they tell ya(D) 
 
----------------------| 
----------------------| 
--7-7---7-------------| 
--7-7---7-------------| 
--5-5---5-------------| 
-------------------| 
 
Those who die or justify 
 
-----------------------------| 
-----------------------------| 
---7-x-x-7-7-x-7-------------| 
---7-x-x-7-7-x-7-------------| 
---5-x-x-5-5-x-5-------3-----| 
---5-x-x-5-5-x-5---1-3-------| 
 
Fuck you I won't do what you tell me!! 
 
-----------------------------| 
-----------------------------| 
---7-x-x-7-7-x-7-------------| 
---7-x-x-7-7-x-7-------------| 
---5-x-x-5-5-x-5-------3-----| 
---5-x-x-5-5-x-5---1-3-------| 
 
PASSAGEM 
 
Bem Rápido 
(enquanto vc faz apassagem vai falando "fuck you I won't do..." 1x para cada casa) 
 
-------------------------------| 
-------------------------------| 
--7--8--9--10-11--12--13--14---|  
--7--8--9--10-11--12--13--14---|  
--5--6--7--8--9---10--11--12---| 
--5--6--7--8--9---10--11--12---| 
 
 
FINAL 
(é parecido com isso...mas não precisa fazer igualzinho...) 
------------------------------------------------| 
------------------------------------------------| 
---7-x-x-7-7-x-7-x-7-x-7-7-x-7------------------| 
---7-x-x-7-7-x-7-x-7-x-7-7-x-7------------------| 
---5-x-x-5-5-x-5-x-5-x-5-5-x-5----------6-6-6---| 
---5-x-x-5-5-x-5-x-5-x-5-5-x-5-----0-0-0--------| 
                                  |--Bem-Forte--| 
Ordem da Música 
 
INTRO 
killingin the name of 
 
RIFF(SEM CANTAR)(4x) 
 
Some of those that work forces are the same that burn crosses (4x) 
Huh! 
 
ANTES DO REFRÃO(2x) 
 
REFRÃO 
Now ya do what they tell ya (12x) 
 
Those who die or justify, for wearing the badge take the chosen way  
They justify those who die, for wearing the badge take the chosen way  (2x) 
 
 
Some of those that work forces are the same that burn crosses (4x) 
Huh! 
 
ANTES DO REFRÃO(2x) 
 
REFRÃO 
Now ya do what they tell ya (4x) 
Now ya do what they tell ya (and you're under control) (8x) 
 
Those who die or justify, for wearing the badge take the chosen way  
They justify those who die, for wearing the badge take the chosen way   (2x) 
Come on! 
 
PASSAGEM(falando "fuck you I won't do...") 
 
Fuck you I won't do what you tell me (8x) 
Mother fucker 
	  

there isn't a video lesson for this song

request
Search
auto scroll beats size up size down change color hide chords drawings
tab show chords e-chords YouTube Clip e-chords hide all tabs e-chords go to top tab