Rage Against The Machine

home > Rage Against The M...

Killing In The Name Of Bass Tab

Rage Against The Machine

Difficulty: BeginnerBeginner

by doctor%5Fmyang

tuner correct add songbook print version text version save to e-mail
chordsukulelecavacokeyboardtabbassdrumsharmonicsflute Guitar Pro
chords

Killing In The Name Of

  		Afinação: E,A,D,G 

Intro: É tocada no mesmo tempo da guitarra 
G----7--7--7--7-- 
D----0--0--0--0-- 
A---------------- 
E---------------- 

Bass Intro: 4x 
G------888-----888-----888-----888-- 
D--000-----000-----000-----000------ 
A----------------------------------- 
E----------------------------------- 


Verso: 
G-------------------------- 
D---------3h4-------------- 
A---5-3h5-----5-0-3-2-0---- 
E-------------------------- 

Refrão: 
G-------4-----3-----2-------------- 
D---000---000---000---0000--------- 
A---------------------------------- 
E---------------------------------- 

"Now you do what they told ya" Part: 
G------- 
D------- 
A--55-5- 
E------- 

Keep Repeating Till the 
"Those who died" Part: 
G---------------       
D---------------      
A--5-55-5-----3-   
E---------1-3---       

Variação do Verso: 
G----------------------5-6-7--10- 
D----------3h4---5-6-7----------- 
A---5-3h5------------------------ 
D-------------------------------- 
	  

Full key step upFull key step up
Half key step upHalf key step up
Half key step downHalf key step down
Full key step downFull key step down
Search Paypal
auto scroll beats size up size down change color hide chords drawings
tab show chords e-chords YouTube Clip e-chords hide all tabs e-chords go to top tab