Nirvana

home > Nirvana

Smells Like Teen Spirit (ver. 3) Bass Tab

Nirvana

Difficulty: EasyEasy

by KURT+CONBAI

tuner correct add songbook print version text version save to e-mail
chordsukulelecavacokeyboardtabbassdrummharmonicsflute Guitar Pro
chords

Smells Like Teen Spirit (ver. 3)

(Kurt Cobain)

  		o baixo entra no refrão: 
 
G-------------------------------------------------- 
D-------------------------------------------------- 
A-----1-1-1------4-4-4----------------------------- 
E-1-1--------4-4----------------------------------- 
 
depois do refrão vem aquela outra parte assim: 
 
G-------------------------------------------------- 
D-------------------------------------------------- 
A----------1-1-1-1----------4-4-4-4---------------- 
E--1-1-1-1----------4-4-4-4------------------------ 
 
depois aquela parte da parinha onde o kurt fala "heim" vai ser o seguinte: 
 
G-------------------------------------------------- 
D-------------------------------------------------- 
A----------------------------2-2------------------- 
E--1-1-1-1----2-2----1-1-1-1------4-4-------------- 
(2x) 
 
A música tem apenas essas 3 partes as batidas estão certas se quiserem 
aumentar a batida no refrão dá certo mais só no refrão e não diminua 
o número de batidas daqui. E o ritmo vc pega com a música. 
	  

Search Paypal
auto scroll beats size up size down change color hide chords drawings
tab show chords e-chords YouTube Clip e-chords hide all tabs e-chords go to top tab