Alice in Chains

home > Alice in Chains

Down In A Hole unplugged Bass Tab

Alice in Chains

Difficulty: IntermediateIntermediate

tuner correct add songbook print version text version save to e-mail
chordsukulelecavacokeyboardtabbassdrumsharmonicsflute Guitar Pro
chords

Down In A Hole unplugged

  		

This probably about 95% right the only thing kinda wrong is the chorus but it sounds right. So play and get the timings down it should sound exactly like it.

Intro
:27 seconds
a--------7/ 
e-555555---
Verse
g-----------------------------------------7/9/7--
d-----------------------------------------------9
a---2-3-2/7-----2-5-4-2---2-3-2/7-----2-5--------
e-5---------5-2---------5---------5-2------------

g------------------------------------------------
d------------------------------------------------
a---2-3-2/7-----2-5-4-2---2-3-2/7-----2-5-5/7/5--
e-5---------5-2---------5---------5-2-----------7

PreChorus
Down in a Hole
d---------5-55---------------5-55----------
a--------------5-55---------------5-5/7/5--
e-5555-55------------5555-55--------------7

Chorus
Down in a Hole losing my soul
d---------5-55-----
a--------------5-55
e-5555-55----------

Bridge
id like to fly
g------------------------------------
d------------------------------------
a-------3-3-3-3-3-3------------------
e-5-3-0-------------3-3-3---0-3h5-3-1

	  

Search Paypal
auto scroll beats size up size down change color hide chords drawings
tab show chords e-chords YouTube Clip e-chords hide all tabs e-chords go to top tab