Nirvana

home > Nirvana

Smells Like Teen Spirit (ver. 2) Bass Tab

Nirvana

Difficulty: nolevelnolevel

by KURT+CONBAI

tuner correct add songbook print version text version save to e-mail
chordsukulelecavacokeyboardtabbassdrummharmonicsflute Guitar Pro
chords

Smells Like Teen Spirit (ver. 2)

  		Primeiro entra a guitarra no solo depois vem a batera e o baixo 
entra logo depois da batera assim 
 
G------------------------------- voce toca isso  
D-------------------------------algumas vezes ate a 
A-----1-1------444--------------intro termina depoi 
E-1-1-1---3-444---------------- voce toca os versos 
 
versos ( e bem parecido com a intro) 
 
G-----------------------------toca isso varias 
D-----------------------------vezes ate  pre refrao 
A------1-1-1------4-4-4------- 
E-1-1-1-----4-4-4------------- 
 
pre chorus  (  quando ele fala hello,hello hello ,how low) 
 
G---------------------------------------- 
D--------------------------------------- 
A--------------------------------------- 
E4-3-4-3-4-3-4-3-4-0------------------- 
 
 
refrao 
 
G--------------------- 
D--------------------- 
A-----1-1-1------4-4-4 
E1-1-1-----4-4-4------
 
depois na do refrao vem uma parte nao cantada onde o kurt so fala um "hein" toca  
uma coisa bem parecida  assim 
 
G----------------------- 
D----------------------- 
A---1-1---4~------------ 
E1-1---4-4---------------
	  

Search Paypal
auto scroll beats size up size down change color hide chords drawings
tab show chords e-chords YouTube Clip e-chords hide all tabs e-chords go to top tab