New Found Glory

home > New Found Glory

My Friends Over You (ver. 3) Bass Tab

New Found Glory

Difficulty: nolevelnolevel

tuner correct add songbook print version text version save to e-mail
chordsukulelecavacokeyboardtabbassdrumsharmonicsflute Guitar Pro
chords

My Friends Over You (ver. 3)

  		Tabbed By: Pat McGee ([email protected]) 
 
New Found Glory 
"My Friends Over You" 
Sticks And Stones (Track 2) 
Standard Tuning (EADG) 
 
Intro: (x2) 
G------------------ 
D------------------ 
A-555-5-55--------- 
E----------333-3-33 
 
 
Verse: {0:10} (x2) 
G------------------------------------------- 
D------------------------------------------- 
A-555-5-55----------555-5-55---------------- 
E----------333-3-33---------0-0-00023-3-3332 
 
 
Pre-Chorus: {0:32} 
G---------------------------------------------- 
D---------------------------------------------- 
A---------------------------------------------- 
E-0-0-00023-3-33320-0-00023-3-3332-55-555-55555 
 
 
Chorus: {0:40} 
G----------------------------|-------------- 
D----------------------------|-------------- 
A-5>>-----5>>-----2>>-----2>>|----------55-- 
E-----3>>-----3>>-----3>>----|-33-22-00----5 
 
{1:02} Intro (x2) 
 
{1:12} Verse (x2) 
 
{1:34} Pre-Chorus 
 
{1:42} Chorus 
 
Breakdown: {2:09} (x3) 
G--------------------------- 
D--------------------------- 
A-5------5------2------2---- 
E----2-3----2-3----2-3---5-3 
 
{2:26} 
G------------------------------------------- 
D------------------------------------------- 
A------------------------------------------- 
E-0~~~~~-------------------------55-555-5555 
 
 
Chorus w/ Variation: {2:37} (x2) 
G------------------------------------------------------- 
D--------------44775>>--------55442200------------------ 
A-5>>------5>>---------2>>-------------2>>----------55-- 
E----23>>-----------------23>--------------33-22-00----5 
 
{3:20} Intro (x2) 
 
 
Please rate it if you like it. Email me with any questions. 
 
Pat McGee ([email protected]) 
 

	  

Search Paypal
auto scroll beats size up size down change color hide chords drawings
tab show chords e-chords YouTube Clip e-chords hide all tabs e-chords go to top tab