New Found Glory

home > New Found Glory

My Friends Over You Bass Tab

New Found Glory

Difficulty: nolevelnolevel

tuner correct add songbook print version text version save to e-mail
chordsukulelecavacokeyboardtabbassdrumsharmonicsflute Guitar Pro
chords

My Friends Over You

Year: 2002 - Album: Sticks and Stones

  		Tabbed by: Adri? 
 
 
 
 
Intro  
G|--------------------| 
D|--------------------| 
A|-555-5-55-----------| x2 
E|-----------333-3-33-| 
  
 
Verse  
G|-----------------------------------------|  
D|-----------------------------------------|  
A|-555-5-55------------555-5-55------------| x2  
E|-----------333-3-33------------0000-3333-|  
 
Pre Chorus  
G|-----------|  
D|-----------|  
A|-----------| x3  
E|-0000-3333-|  
 
Chorus  
G|-----------------------------------|  
D|-----------------------------------|  
A|-5555555555555555------------------| x2  
E|------------------3333333333333333-|  
 
G|--------------------------------------------------------------| 
D|--------------------------------------------------------------| 
A|-2222222222222222------------------2222222222222222-------5-0-| 
E|------------------3333333333333333------------------3-2-0-----| 
 
 
Intro  
Verse  
Pre Chorus  
Chorus  
 
 
Bridge (Start playing after the guitar plays this 2 times)  
G|-----------------------------|  
D|-----------------------------|  
A|-5-------5-------2-----2-----| x3  
E|---2-3-----2-3-----2-3---5-3-|  
 
 
Shut up (only guitar and voice)  
Chorus x2  
Intro 
 

	  

Search Paypal
auto scroll beats size up size down change color hide chords drawings
tab show chords e-chords YouTube Clip e-chords hide all tabs e-chords go to top tab