New Found Glory

home > New Found Glory

My Friends Over You (ver. 2) Bass Tab

New Found Glory

Difficulty: nolevelnolevel

tuner correct add songbook print version text version save to e-mail
chordsukulelecavacokeyboardtabbassdrumsharmonicsflute Guitar Pro
chords

My Friends Over You (ver. 2)

  		Tabbed by: ClayO1086 
 
 
Intro  
G--------------------- 
D--------------------- X2 
A-555-5-55------------  
E-----------333-3-33?- 
 
Verse  
G------------------------------------------  
D------------------------------------------ X2  
A-555-5-55------------555-5-55-------------  
E-----------333-3-33------------0000-3333?- 
 
Pre Chorus  
G------------  
D------------ X3 
A------------ 
E-0000-3333?- 
 
Chorus:  
G----------------------------------------------------------------------  
D----------------------------------------------------------------------  
A-5555555---------5555555----------2222222----------2222222------------  
E---------3333333---------33333333---------33333333---------3333333h5? 
 
G--------------------------------------------------------------  
D--------------------------------------------------------------  
A-5555555---------5555555----------2222222----------------5-0?- 
E---------3333333---------33333333---------33333333-3-2-0------ 
 
Intro  
G--------------------- 
D--------------------- X2 
A-555-5-55------------  
E-----------333-3-33? 
 
Verse  
G------------------------------------------  
D------------------------------------------ X2  
A-555-5-55------------555-5-55-------------  
E-----------333-3-33------------0000-3333? 
 
Pre Chorus  
G------------  
D------------ X3 
A------------ 
E-0000-3333? 
 
(lead you on...) 
G-----------  
D----------- 
A-55555555? 
E----------- 
Chorus:  
G----------------------------------------------------------------------  
D----------------------------------------------------------------------  
A-5555555---------5555555----------2222222----------2222222------------  
E---------3333333---------33333333---------33333333---------3333333h5? 
 
G--------------------------------------------------------------  
D--------------------------------------------------------------  
A-5555555---------5555555----------2222222----------------5-0? 
E---------3333333---------33333333---------33333333-3-2-0------ 
 
Bridge  
G--------------------------  
D-------------------------- X3  
A-5-----5-----2-----2------ 
E---2-3---2-3---2-3---5-3? 
 
Chorus:  
G----------------------------------------------------------------------  
D----------------------------------------------------------------------  
A-5555555---------5555555----------2222222----------2222222------------  
E---------3333333---------33333333---------33333333---------3333333h5? 
 
G--------------------------------------------------------------  
D--------------------------------------------------------------  
A-5555555---------5555555----------2222222----------------5-0? 
E---------3333333---------33333333---------33333333-3-2-0------ 
 
Intro  
G--------------------- 
D--------------------- X2 
A-555-5-55------------  
E-----------333-3-33-- 
 
That's as close as it's gonna get. 
Please Rate this tab. And tell me what ya'll think. 
 

	  

Search Paypal
auto scroll beats size up size down change color hide chords drawings
tab show chords e-chords YouTube Clip e-chords hide all tabs e-chords go to top tab