Yngwie Malmsteen

Icarus Dream Fanfare Tab

Yngwie Malmsteen

Difficulty: AdvancedAdvanced

by Du+Hast

tuner correct add songbook print version text version save to e-mail
chordsukulelecavacokeyboardtabbassdrumsharmonicsflute Guitar Pro
close

there isn't a video lesson for this song

chords

Icarus Dream Fanfare

  		#----------------------------------PLEASE NOTE---------------------------------# 
#This file is the author's own work and represents their interpretation of the # 
#song. You may only use this file for private study, scholarship, or research. # 
#------------------------------------------------------------------------------# 
 
================================================================================ 
         Title : "Icarus Dream Fanfare " 
        Artist : Yngwie Malmsteen 
         Album : Concerto Suite 
Transcribed by : Vince    [email protected] 
 
 
================================================================================ 
 
cd time 0.35-0.52 
 
e-21b-14p-21p-11-----------------------------------------------7--| 
b---------------13-12-10--------------------------------------8---| 
g-----------------------12-11-9s-8---------------------------9----| 
d---------------------------------10p-9p-7---------------5h-9-----| 
a-----------------------------------------10p-9p-7-6h-7-7---------| 
 
e-12vb-----12-16-17vb----12-17---18p-15-------15-18sl---19vb------| 
b--------12------------13--------------17---17--------------------| 
g------13------------14------------------18-----------------------| 
 
e-17h-19h-20p-19p-17----------------------------------------------| 
b-------------------20p-19p-17-20p-19h-20p-19p-17s-16-17p-16------| 
 
 
g-17-16-14-------------------------------------} 
d---------17-16-14s-13-------------------------} 
a---------------------15p-14p-12---------------} 
E-------------------------------15p-14p-12s-11-} 
 
 
cd time 1.32-2.59 
 
e-11-----12vb----------8h-12p-8-7h-8p-7---10------------------13-15-17--| 
b---14-12-----9-12---12----------------10----7-10s-17-14-15-17----------| 
 
e-15--------15---17--------------------------------------------12-------| 
b---18-17-18---18---17-18-15-17h-18-17-15-15tr17---14-12-14-15----------| 
 
e-14h-15p-14p-12--------------------------------------------------------| 
b---------------15-14-12s-11---11-12-14-15p-14p-12s-11--------11-12h-14-| 
g---------------------------12------------------------12-11-12----------| 
 
e--------------------------------------------------14h-19p-14-------------| 
b-p-12p-11---------------------------------------15----------15-----------| 
g---------21-11--------------------------------16--------------16---------| 
d--------------14-16p-14p-12-------------12h-16------------------16p-12---| 
a---------------------------16p-14-13-14-------------------------------14-| 
 
 
e-----------14-19-sl-} 
b---------15---------} 
g-------16-----------} 
d-12h-16-------------} 
 
 
 

	  

auto scroll beats size up size down change color hide chords drawings
tab show chords e-chords YouTube Clip e-chords hide all tabs e-chords go to top tab

share with facebook

Search Paypal