Europe

Carrie (solo)

Europe

tabs Expert expert

by  KAINARD

save to print version add songbook text version e-mail correct tuner
chordsukulelecavacokeyboardtabbassdrumsharmonicaflute Guitar Pro
close

there isn't a video lesson for this song

chords

Carrie (solo)

	  		E |----12--15--17---17/19------12-15-12------------------------------------------------------ 
B |--------------------------------------12-15-12--------13-12------------14-15--14---------- 
G |-------------------------------------------------------------14-12---14/----14/-12-------- 
D |-----------------------------------------------------------------------------------14----- 
A |------------------------------------------------------------------------------------------ 
E |------------------------------------------------------------------------------------------ 

E |------------------------------------------------------------------------------------------ 
B |------------------------------------------------------------------------------------------ 
G |------------------------------------------------------------------------------------------ 
D |----14---12---12-14-12-------------------------------------------------------------------- 
A |------------------------14-12-14/---------14-15-14-12-10---14-15-14-12-10----------------- 
E |------------------------------------------------------------------------------------------ 

E |------------------------------------------------------------------------------------------ 
B |------------------------------------------------------------------------------------------ 
G |-----------------------------------------15-17-15------15-17-19-17--17/15----------------- 
D |----14-13-12-9--15-14-12-10-17/---15-17-------------17--------------------17-15----------- 
A |------------------------------------------------------------------------------------------ 
E |------------------------------------------------------------------------------------------ 

E |------------------------------------------------------------------------------------------ 
B |------------------------------------------------------------------------------------------ 
G |------------------------------------------------------------------15---------------------- 
D |----15-15-13-13-------------15-15-13-13--------------------------------------------------- 
A |----------------17-17-13-13-------------17-17-13-13-15---13-15-13------------------------- 
E |------------------------------------------------------------------------------------------ 

		  

See also:

tabs Europe - Carrie (solo) tabs Yngwie Malmsteen - Making Love tabs Yngwie Malmsteen - Fire In The Sky tabs The Hellacopters - Carry me Home tabs Yngwie Malmsteen - Coming Back tabs The Hellacopters - I'm in the band
e-chords

Other versions:

tabs Europe - Carrie (solo) tabs Sonicflood - Carried Away
auto scroll beats size up size down change color hide chords drawings
tab show chords e-chords YouTube Clip e-chords hide all tabs e-chords go to top tab

share