Yngwie Malmsteen

I'll See the Light Tonight Tab

Yngwie Malmsteen

Difficulty: ExpertExpert

tuner correct add songbook print version text version save to e-mail
chordsukulelecavacokeyboardtabbassdrumsharmonicsflute Guitar Pro
close

there isn't a video lesson for this song

chords

I'll See the Light Tonight

  		 
bf=bend full 
s = slide 
h = hammeron 
p = pull off 
~ = vibrato 
 
 
Main Riff 
----------------------------------------------------------------|----------- 
----------------------------------------------------------------|----------- 
------------------------10----------9-----------10-----------9~-|---%------- 
-----------5--3p2p0------7----------7------------7-----------7~-|----------- 
0-5-3p2p0------------------0-0-0-0-----0-0-0-0------0-0-0-0-----|----------- 
----------------------------------------------------------------|----------- 
 
 
|------------|----------|------------------------------------------------| 
|------------|----------|------------------------------------------------| 
|-----%------|----%-----|------------------------------------------------| 
|------------|----------|------------------------------------------------| 
|------------|----------|--2-------5-------8-------11------11\14---------| 
|------------|----------|-----1~------4~------7--------10---------13\----| 
repeat main riff 
 
 
verse 
~ with bar 
---------------------------------------------------------------------------- 
------------------------------------------------------8--------------------- 
7~--------------9~-------------------7~---------------7--------------------- 
7~--------------9~-------------------7~---------------9--------------------- 
---------------------------------------------------------------------------- 
---------------------------------------------------------------------------- 
 
harm--------- 
-------7-------------------------------------------------------------------- 
--7---------7----------------------------------------2---------------------- 
----------------------7------------9~----------------2---------------------- 
----------------------7------------9~----------------2-------2-------------- 
-------------------------------------------------------------2-------------- 
-------------------------7--7-7-7----------------------------0-------------- 
 
 
---------------------------------------------------------------------------- 
------------------------------------------------------------2--------------- 
-7----------9------------7-------------8---------7-----9----2--------------- 
-7----------9------------7-------------7---------7-----9----2----2---------- 
---------------------------------------9-------------------------2---------- 
-----------------------------------------------------------------0---------- 
 
Main riff for chorus 
 
 
 
 
 
 
Interlude 
 
10-13-12-13-10-13-12-13-8-12-10-12-8-12-10-12|-7-10-8-10-7-10-8-10--5-8-7-8--| 
---------------------------------------------|-------------------------------| 
---------------------------------------------|-------------------------------| 
---------------------------------------------|-------------------------------| 
---------------------------------------------|-------------------------------| 
---------------------------------------------|-------------------------------| 
 
 
5-8-7-8|-10-13-12-13-7-10-8-10-8-12-10-12-5-8-7-8|-7-10-8-10-4-7-5-7-5-8-7-8-- 
-------|-----------------------------------------|---------------------------- 
-------|-----------------------------------------|---------------------------- 
-------|-----------------------------------------|---------------------------- 
-------|-----------------------------------------|---------------------------- 
-------|-----------------------------------------|---------------------------- 
 
 
5-8-7-8|-4-7-5-7-7-10-8-10-5-8-7-8-5-8-7-8|-7-10-8-10-10-13-12-13-8-12-10-12-- 
-------|----------------------------------|----------------------------------- 
-------|----------------------------------|----------------------------------- 
-------|----------------------------------|----------------------------------- 
-------|----------------------------------|----------------------------------- 
-------|----------------------------------|----------------------------------- 
 
 
8-12-10-12|-10-13-12-13-----------------------------|------------------------- 
----------|-------------9-12-10-12------------------|------------------------- 
----------|------------------------7-10-9-10--------|------------------------- 
----------|----------------------------------6-9-7-9|------------------------- 
----------|-----------------------------------------|5-8-7-5----------5-7-8-5- 
----------|-----------------------------------------|--------4-5-7-4---------- 
 
 
-------|--------------12-17p12----------------12h13p12----12-13-15-12-13-15- 
-------|-----------13----------13----12-13-15----------15------------------- 
-------|--------14----------------14---------------------------------------- 
6-7-9-6|-------------------------------------------------------------------- 
-------|-7~----------------------------------------------------------------- 
-------|-------------------------------------------------------------------- 
 
                                                full 
17|13-15-17-19-16-17-19-20-17-19-20s22-19-20-22-22b-||--------------------19 
--|-------------------------------------------------||-22bf---22bf---22bf--- 
--|-------------------------------------------------||---------------------- 
--|-------------------------------------------------||---------------------- 
--|-------------------------------------------------||---------------------- 
--|-------------------------------------------------||---------------------- 
 
 
14--15p14p12s10-12-10s9----9h10p9-------9--------|-------------------------- 
------------------------12--------12-10---12-10-8|-12-8-10-12-10-8s7-10p8p7- 
-------------------------------------------------|-------------------------- 
-------------------------------------------------|-------------------------- 
-------------------------------------------------|-------------------------- 
-------------------------------------------------|-------------------------- 
 
 
 
 
 
-------------|----------14p10h14t19p14p10h12t17p14p12p10h12t17p9h14p9~|----- 
10-8p7-------|-------12-----------------------------------------------|----- 
-------9bf~--|----11--------------------------------------------------|----- 
-------------|-12-----------------------------------------------------|----- 
-------------|--------------------------------------------------------|----- 
-------------|--------------------------------------------------------|----- 
 
 
------14-19p14----14------------|----------------------|-------------------- 
---15----------15-------15------|----------------------|-------------------- 
16-------------------16----11-16|----------------------|-------------------- 
--------------------------------|----11-----12---------|-------------------- 
--------------------------------|-12-----14----9-14----|--------9-------9-10 
--------------------------------|-------------------9~-|9-10-12---10-12----- 
 
 
--------------------------------------9-10-------9----|-9-12p11p9-8-11p9p8-- 
------------------------------9-10-12------12bf----12~|--------------------- 
-------------------9-10-11-12-------------------------|--------------------- 
---9-11----9-11-12------------------------------------|--------------------- 
12------12--------------------------------------------|--------------------- 
------------------------------------------------------|--------------------- 
 
 
11-14p12p11p9-12-16p14p12-11-12-14-16-16s21|-21~~~~~21~~~~~~|------16-20p16- 
-------------------------------------------|----------------|---17---------- 
-------------------------------------------|----------------|18------------- 
-------------------------------------------|----------------|--------------- 
-------------------------------------------|----------------|--------------- 
-------------------------------------------|----------------|--------------- 
 
 
-------------------------|-------------------------------------------------- 
17-21p17----16-----------|-------------------------------13-16-14-13-------- 
---------18--------------|----------13-16-14-13-13-14-16-------------16----- 
---------------18~--16p13|-13-14-16----------------------------------------- 
-------------------------|-------------------------------------------------- 
-------------------------|-------------------------------------------------- 
 
 
-----------------------|---------------------------14h16p14p12-------------- 
-----------------------|------------------13-14-16-------------16p14p12----- 
14p13----14p13---------|---------13-14-16----------------------------------- 
------16-------16-14p13|13-14-16-------------------------------------------- 
-----------------------|---------------------------------------------------- 
-----------------------|---------------------------------------------------- 
 
----------------------------------------------------------------------------| 
---14p13-------14p13--------------------------------------------------------| 
14-------14p13-------16-14p13----14p13----------13--------------------------| 
------------------------------16-------16-14h16----16p14p13----14p13--------| 
------------------------------------------------------------16-------16~----| 
----------------------------------------------------------------------------| 
 
      1-1/2 
17bf--16b-----13---t17p13-t16p13t17p13t16p13t17p13t16p13--16p10h13-t16p10h13 
---------------------------------------------------------------------------- 
---------------------------------------------------------------------------- 
---------------------------------------------------------------------------- 
---------------------------------------------------------------------------- 
---------------------------------------------------------------------------- 
p10-t13p7h10p7-10bf-|-12----12h16-t19p12h16p12-|t19p16p12-t22p16p12-12-15s21 
--------------------|----15--------------------|---------------------------- 
--------------------|--------------------------|---------------------------- 
--------------------|--------------------------|---------------------------- 
--------------------|--------------------------|---------------------------- 
--------------------|--------------------------|---------------------------- 
 
1-1/2 
---------20-17-19|20-19-17-22-17-19-20-19-17-19-16-17-19-17-16---------| 
21b--------------|---------------------------------------------18-15-17| 
-----------------|-----------------------------------------------------| 
-----------------|-----------------------------------------------------| 
-----------------|-----------------------------------------------------| 
-----------------|-----------------------------------------------------| 
 
 
---------------------------------------------------12h-|13p12p10------------ 
18-17-15s17-13-15-17-15-13s15-12-13-15-13-12s13-10-----|---------13p12p10--- 
-------------------------------------------------------|-------------------- 
-------------------------------------------------------|-------------------- 
-------------------------------------------------------|-------------------- 
-------------------------------------------------------|-------------------- 
 
 
-----------------------------------------------------|---------------------- 
-----------12h13p12p10------------------------10p9---|---------------------- 
13p12p10s9--------------13p12p10s9---------12------12|-10p9----10p9--------- 
-----------------------------------12-10p9-----------|------12------12-10p9- 
-----------------------------------------------------|---------------------- 
-----------------------------------------------------|---------------------- 
 
 
---------------------------------------------------------------------------- 
---------------------------------------------------------------------------- 
---------------------------------------------------------------------------- 
---------------------------------------------------------------------------- 
12bf------------------------------------------------------------------------ 
---------------------------------------------------------------------------- 
 
 
YNGWIE J. MALMSTEEN I'LL SEE THE LIGHT TONIGHT 
 
 
	    with volumen knob and delay 
	---14-b1--r------------------------------------------------------- 
	------------------------------------------------------------------ 
	-----------------------------16~~---------------10-b1--r---------- 
	------------------------------------------------------------------ 
	------------------------------------------------------------------ 
	------------------------------------------------------------------ 
 
	3x                        <-------------Riff A------------------ 
	||--------------------------------------------------------------|| 
	||--------------------------------------------------------------|| 
	||------------------------10---------9--------10---------9~-----|| 
	||------------5-3-'2-'0----7---------7---------7---------7~-----|| 
	||--5-3-'2-'0----------------0-0-0-0---0-0-0-0---0-0-0-0------0-|| 
	||--------------------------------------------------------------|| 
 
 
	------------------------------------------------------------------ 
	------------------------------------------------------------------ 
	------------------------------------------------------------------ 
	------------5-3-'2-'0--------------------------------------------- 
	--5-3-'2-'0-------------2------------5----------8-----11-----14--- 
	--------------------------1~~----------4~~---------7-----10-----13 
 
	      2x 
	------||--------------------------------------------------------- 
	------||---7----------------------------9~----------------------- 
	-2/\/-||---7----------------------------9~----------------------- 
	-2/\/-||---7----------------------------9~----------------------- 
	-0/\/-||--------------------------------------------------------- 
	------||--------7-7-7-7-7-7-7-7-7-7-7-------7-7-7-7-7-7-7-7-7-7-7 
			 with tumb 
 
	----------------------------------------------------------------- 
	---7~-----------------------8/\/-------------------------7~------ 
	---7~-----------------------7/\/-------------------------7~------ 
	---7~-----------------------9/\/-------------------------7~------ 
	------------------------------------------------------------------ 
	-----7-7-7-7-7-7-7-7-7-7-7--------7-7-7-7-7-7-7-7-7-7-7----------- 
 
 
	----------------------------------------------------------------|| 
	--------------------------9~-------------------------5----------|| 
	--------------------------9~-------------------------6------9---|| 
	--------------------------9~-------------------------7------9---|| 
	-----------------------------------------------------0------7---|| 
	--7-7-7-7-7-7-7-7-7-7-7-------7-7-7-7-7-7-7-7-7-7-7---------0---|| 
 
		Riff A  
	-------|----------------------- 
	-------|-------------------------- 
	-------|--10------------------- 
	-------|--7-----------------------   and so on..... 
	--0-0--|-----0-0-0-0----------- 
	-------|-------------------------- 
 
 
	Interlude 
 
	10-13-12-13-10-13-12-13-8-12-10-12-8-12-10-12-7-10-8-10-7-10-8-10- 
	------------------------------------------------------------------ 
	------------------------------------------------------------------ 
	------------------------------------------------------------------ 
	------------------------------------------------------------------ 
	------------------------------------------------------------------ 
 
 
	5-8-7-8-5-8-7-8-10-13-12-13-7-10-8-10-8-12-10-12-5-8-7-8-7-10-8-10 
	------------------------------------------------------------------ 
	------------------------------------------------------------------ 
	------------------------------------------------------------------ 
	------------------------------------------------------------------ 
	------------------------------------------------------------------ 
 
 
 
 
 
	4-7-5-7-5-8-7-8-5-8-7-8-4-7-5-7-7-10-8-10-5-8-7-8-5-8-7-8-7-10-8- 
	------------------------------------------------------------------ 
	------------------------------------------------------------------ 
	------------------------------------------------------------------ 
	------------------------------------------------------------------ 
	------------------------------------------------------------------ 
 
 
	10-10-13-12-13-8-12-10-12-8-12-10-12-10-13-12-13---------------- 
	-------------------------------------------------9-12-10-12------- 
	------------------------------------------------------------7-10-9 
	------------------------------------------------------------------ 
	------------------------------------------------------------------ 
	------------------------------------------------------------------ 
 
                                                   Guitar solo----> 
	---------------------------------------------12-17'12--- 
	--------------------------------------------13------13--- 
	10----------------------------------------14*-------14- 
	---6-9-7-9-------------------------6-7-9-6-7------------- 
	-----------5-8-7-5---------5-7-8-5---------------------- 
	-------------------4-5-7-4------------------------------- 
                                                   *dub 
 
 
_______________________________________________________ 
Contribuição: Cássio Santanelli Costa([email protected]) 

	  

auto scroll beats size up size down change color hide chords drawings
tab show chords e-chords YouTube Clip e-chords hide all tabs e-chords go to top tab

share with facebook

Search Paypal