The Hellacopters

Toys and Flavours

The Hellacopters

tabs Expert expert

save to print version add songbook text version e-mail correct tuner
chordsukulelecavacokeyboardtabbassdrumsharmonicaflute Guitar Pro
close

there isn't a video lesson for this song

chords

Toys and Flavours

	  		 
b = bend string up 
r = relese bend 
h = hammer on 
p = pull off 
 
Intro (bas) 
 
D|------------------------------------------------------------- 
A|-------9h10-----6-------6---------------6h8-----6-------6----- 
E|--8----------6----4-4-----6---6--8----------6----4-4-----6--- 
 
Intro(Something like this): 
	 C (Let Ring ------------------>)	 C	 C	 C	 C 
e|----------------------------------------------------------------- 
B|---6h8------------6b7r6p4---------------------------------------- 
G|-----------------------------5----------------------------------- 
D|----------------------------------------------------------------- 
A|----------------------------------------------------------------- 
E|----------------------------------------------------------------- 
 
C	A# C D#	G#		A# 
e|------------------------------------------------6---------------- 
B|-----------4-4-----4-6-6b7p4----4-----------6b7---7r6------------ 
G|--3h5----5------5-------------5---5------5----------------------- 
D|----------------------------------------------------------------- 
A|----------------------------------------------------------------- 
E|----------------------------------------------------------------- 
 
e|--6h8-8-8-8-8-8-8-8--8h11p8h11p8h11p8h11p-13b15r13-11------------ 
B|----------------------------------------------------------------- 
G|----------------------------------------------------------------- 
D|----------------------------------------------------------------- 
A|----------------------------------------------------------------- 
E|----------------------------------------------------------------- 
 
Verse 1 
C	A# C D#	G#		A# 
Swallow up 
....... 
 
C	A# C D#	G#		A# 
So here´s a treat 
......... 
 
Pre chorus 
C	D#	F 
Hey Hey Hey now 
..... 
 
Chorus 
	   G#		C	A# 
Toys and flavours 
	    A#      F C 
Season savours 
	    G# 
C´mon devour 
A#					C	D#	F 
And cut the edges out 
 
Verse 2 
C	A# C D#	G#		A# 
Baby 
........... 
 
Pre chorus: 
Hey Hey Hey now 
...... 
 
Chorus 
	   G#		C	A# 
Toys and flavours 
......... 
 
SOLO 1(piano) 
F	  			C 
F	  	G#	A#	C 
F	  			C 
G#	A#	C(Ring---) 
 
SOLO 2 
C	A# C D#	G#		A#   X8 
 
Pre chorus 
C	D#	F 
Hey Hey Hey now 
...... 
 
Chorus 
	   G#		C	A# 
Toys and flavours 
	    A#      F C 
Season savours 
	    G# 
C´mon devour 
A#					C	D#	F 
And cut the edges out 
 
	   G#		C	A# 
Toys and flavours 
	    A#      F C 
Season savours 
	    G# 
Ohh-ohh 
A#					C	D#	F 
 
C	D#	F x7 
C (END) 
 
During Solo 1 there is piano and the guitar just works in the 
background. You can pick it out pretty easy. 
 
Solo 2 I have tabbed down under it probably has a lot of error 
since I was in a bit of a hurry to pick it. Anyway it is a start and 
you can work on the details your self, please give your comments. 
 
Solo 2: 
e|-----------------------------10b11-10b11-10b11-------13b14r13-11--- 
B|-13----13-11-----------11-13--------------------13-11------------13 
G|-----------------10-12--------------------------------------------- 
D|--------------13--------------------------------------------------- 
A|------------------------------------------------------------------- 
E|------------------------------------------------------------------- 
 
e|--------13-------11-----------------------------------------11b13-- 
B|--11-13----11-13-----11-13-------------------------11b13----------- 
G|---------------------------12-10----------12-10----------12-------- 
D|----------------------------------13------------13---------------13 
A|------------------------------------------------------------------- 
E|------------------------------------------------------------------- 
 
e|-----------------------------------10b11r10b11r10b11r10-11-11-11p10 
B|--13-13-13-13-13-13-13-13-13-13-13--------------------------------- 
G|------------------------------------------------------------------- 
D|------------------------------------------------------------------- 
A|------------------------------------------------------------------- 
E|------------------------------------------------------------------- 
 
e|-8-8-------8-11p8--8-11p8--8-11p8--8-11-13--18-20------------------ 
B|-----11-8--------11------11------11-------------------------------- 
G|------------------------------------------------------------------- 
D|------------------------------------------------------------------- 
A|------------------------------------------------------------------- 
E|------------------------------------------------------------------- 
 
 
_______________________________________________________ 
Contribuição: Fhillip L. Rodrigues([email protected]) 
		  

Full key step upFull key step up
Half key step upHalf key step up
Half key step downHalf key step down
Full key step downFull key step down
hide glossary

See also:

tabs Yngwie Malmsteen - Casting Pearls Before The Swine tabs Yngwie Malmsteen - Evil Eye tabs Yngwie Malmsteen - Caught in the Middle tabs Yngwie Malmsteen - Too Young To Die, Too Drunk To Live tabs Yngwie Malmsteen - Carry on Wayward Son tabs The Hellacopters - Hopeless case of a kid in denial
e-chords

Other versions:

tabs The Hellacopters - Toys and Flavours
auto scroll beats size up size down change color hide chords drawings
tab show chords e-chords YouTube Clip e-chords hide all tabs e-chords go to top tab

share