White Stripes

7 Nation Army (ver. 2) Tab

White Stripes

Difficulty: BeginnerBeginner

tuner correct add songbook print version text version save to e-mail
chordsukulelecavacokeyboardtabbassdrumsharmonicsflute Guitar Pro
close

there isn't a video lesson for this song

request
chords

7 Nation Army (ver. 2)

  		INTRO (clean with sub octave effect) 
 
E  --------------------------- 
B  --------------------------- 
G  --------------------------     x12 
D  -------------------------- 
A  --7--7-10-7------------- 
E  ---------------10-8---7 
 
PRE-CHORUS (minor distortion without sub octave effect) 
 
E-------------------------------------------- 
B-------------------------------------------- 
G--------------------------------------------    x12 
D--------------------------------------------- 
A  --5-5-5-5-5-5-5-5----7-7-7-7-7-7-7-7 
E  --3-3-3-3-3-3-3-3----5-5-5-5-5-5-5-5 
 
CHORUS (no sub octave effect) 
 
E  ---------------------------- 
B  ---------------------------- 
G  --9--9-12-9-7-5---4-----     x1 
D  --9--9-12-9-7-5---4----- 
A  --7--7-10-7-5-3---2----- 
E  ---------------------------- 
 
E  ------------------------------ 
B  ------------------------------ 
G  --9--9-12-9-7-5-7-5---4-      x1 
D  --9--9-12-9-7-5-7-5---4- 
A  --7--7-10-7-5-3-5-3---2- 
E  ------------------------------ 
 
E  ---------------------------- 
B  ---------------------------- 
G  --9--9-12-9-7-5---4-----      x1 
D  --9--9-12-9-7-5---4----- 
A  --7--7-10-7-5-3---2----- 
E  ---------------------------- 
 
E  ------------------------------ 
B  ------------------------------ 
G  --9--9-12-9-7-5-7-5---4-     x1 
D  --9--9-12-9-7-5-7-5---4- 
A  --7--7-10-7-5-3-5-3---2- 
E  ------------------------------ 
 
AFTER CHORUS (minor distortion with no sub octave effect) 
 
E-------------------------------------------- 
B-------------------------------------------- 
G--------------------------------------------         x1 
D--------------------------------------------- 
A  --5-5-5-5-5-5-5-5----7-7-7-7-7-7-7-7 
E  --3-3-3-3-3-3-3-3----5-5-5-5-5-5-5-5 
 
 
INTRO (clean with sub octave effect) 
 
E  --------------------------- 
B  --------------------------- 
G  --------------------------       x12 
D  -------------------------- 
A  --7--7-10-7------------- 
E  ---------------10-8---7- 
 
PRE-CHORUS (minor distortion without sub octave effect) 
 
E-------------------------------------------- 
B-------------------------------------------- 
G--------------------------------------------    x12 
D--------------------------------------------- 
A  --5-5-5-5-5-5-5-5----7-7-7-7-7-7-7-7 
E  --3-3-3-3-3-3-3-3----5-5-5-5-5-5-5-5 
 
CHORUS (00:52) (no sub octave effect) 
 
E  ---------------------------- 
B  ---------------------------- 
G  --9--9-12-9-7-5---4-----     x1 
D  --9--9-12-9-7-5---4----- 
A  --7--7-10-7-5-3---2----- 
E  ---------------------------- 
 
E  ------------------------------ 
B  ------------------------------ 
G  --9--9-12-9-7-5-7-5---4-      x1 
D  --9--9-12-9-7-5-7-5---4- 
A  --7--7-10-7-5-3-5-3---2- 
E  ------------------------------ 
 
E  ---------------------------- 
B  ---------------------------- 
G  --9--9-12-9-7-5---4-----      x1 
D  --9--9-12-9-7-5---4----- 
A  --7--7-10-7-5-3---2----- 
E  ---------------------------- 
 
E  ------------------------------ 
B  ------------------------------ 
G  --9--9-12-9-7-5-7-5---4-     x1 
D  --9--9-12-9-7-5-7-5---4- 
A  --7--7-10-7-5-3-5-3---2- 
E  ------------------------------ 
 
 
SOLO 
E --------------------------------------------------------------| 
B --------------------------------------------------------------| 
G -9---9--12--9--9--12b-11-----9--9--12--14--12--12b14b12b-11---| 
D --------------------------------------------------------------| X 2 
A --------------------------------------------------------------| 
E --------------------------------------------------------------| 
                                                                               
 
E -12---12--15--12--12--15b-14------12--12--15--17--15--15b17b15b-14---| 
B ---------------------------------------------------------------------| 
G ---------------------------------------------------------------------| 
D ---------------------------------------------------------------------| 
A ---------------------------------------------------------------------| 
E ---------------------------------------------------------------------| 
                                                                               
 
E -12---12--15--12--12--15b-14------12-12-14-12-12-14-12-14-12---------| 
B -------------------------------------------------------------13-12---| 
G ---------------------------------------------------------------------| 
D ---------------------------------------------------------------------| 
A ---------------------------------------------------------------------| 
E ---------------------------------------------------------------------| 
 
 
 
END 
|----------------------------------------------------------------------------- 
|----------------------------------------------------------------------------- 
|-9--------------------------9\----------------------------------------------- 
|-9-------let ring-----------9\----------------------------------------------- 
|-7--------------------------7\----------------------------------------------- 
|----------------------------------------------------------------------------- 
	  

Search Paypal
auto scroll beats size up size down change color hide chords drawings
tab show chords e-chords YouTube Clip e-chords hide all tabs e-chords go to top tab

share with facebook