Fleetwood Mac

Oh Well

Fleetwood Mac

tabs Expert expert

save to print version add songbook text version e-mail correct tuner
chordsukulelecavacokeyboardtabbassdrumsharmonicaflute Guitar Pro
close
oh-well-by-fleetwood-mac

there is a video lesson for this song

chords

Oh Well

Year: 1969 - Album: Then Play On

	  		Play these first two bars fast (hear song) 
e|---------------------------------------------------------------------| 
B|---------------------------------------------------------------------| 
G|---------------------------------------------------------------------| 
D|-------------0----------22222---------------0---------2--22222-------| 
A|--------0-h2----2-0-----22222----------0-h2----2-0-2-----00000-------| 
E|--0--3-------------- 3--00000-----0-3--------------------00000-------| 
                          ^play as many times as you see fit^ 
e|---------------------------------------------------------------------| 
B|---------------------------------------------------------------------| 
G|---------------------------------------------------------------------| These 2 bars play X 2 
D|-------------0----------22222---------------0-h-2-----------22222----| 
A|--------0-h2----2-0-----22222----------0-h2-------0-h-2-----00000----| 
E|--0--3-------------- 3--00000-----0-3-------------------3---00000----| 
 
                          
e|------------------------(88v)--| 
B|------------------------(99v)--| 
G|-------------------------------| 
D|-------------------------------|   X 4 
A|--5-s-7-7--7-7-7-7-------------| 
E|--0---0-0--0-0-0-0-------------| 
 
e|-----------------------------| 
B|-----------------------------| 
G|-----------------------------|  X 4 
D|---------5-------------------| 
A|--5-h-7--5--7---5-h-7v-------| 
E|--0---0-----0---0---0v-------| 
 
e|----------------------------------------------------| 
B|----------------------------------------------------| 
G|---------------------------------------7--8--v9-----| 
D|---------5--7--8-------------7--8--9---------(0)----| 
A|-5-h-7---5--7--8------7--10-------------------------| 
E|-0---0----------------------------------------------| 
 
Play all the way through then; 
 
I can't help about the shape I'm in 
I can't sing I aint pretty and my legs are thin 
But don't ask me what I think of you  
I might not give the answer that you want me to 
 
Play through once more then; 
 
Now when I talk to God you know he understands 
He said stick by me and I'll be your guidin' hand 
But don't ask me what I think of you  
I might not give the answer that you want me to 
 
And then once through again. 
 
(No music in the lyrics) 
----------------------------------------- 
 
This should be 100% fine. If it isn't then i'll 
butter up my fingers and shove them up a baby baboon.:p 
 

		  

See also:

tabs Deep Purple - Smoke on the Water (solo) tabs Eagles - Take It Easy tabs Dire Straits - Sultans of Swing tabs White Stripes - the seven nation army tabs Yes - Roundabout tabs Queen - Love of my Life
e-chords

Other versions:

tabs Fleetwood Mac - Oh Well tabs Skulker - Oh Well tabs The Demics - Oh Well tabs Fleetwood Mac - Oh Well Part
auto scroll beats size up size down change color hide chords drawings
tab show chords e-chords YouTube Clip e-chords hide all tabs e-chords go to top tab

share