DevilZ RevenGe

7 Nation Army

DevilZ RevenGe

tabs Beginner beginner

by  STACEY_KYM05

save to print version add songbook text version e-mail correct tuner
chordsukulelecavacokeyboardtabbassdrumsharmonicaflute Guitar Pro
close

there isn't a video lesson for this song

chords

7 Nation Army

	  		7 Nation Army      Tabs 
  
  
  
VERSE*  
e-------------------------------|  
B-------------------------------|  
G-------------------------------|  
D-------------------------------|  
A-------------------------------|  
E-7----7---10---7---5---3----2--|  
      
  
 PRE Chorus  
e--------------------------------------|  
B--------------------------------------|  
G-------------------0-0-0-0-0-0-0-0-0--|  
D-5-5-5-5-5-5-5-5-5-2-2-2-2-2-2-2-2-2--|  
A-5-5-5-5-5-5-5-5-5-0-0-0-0-0-0-0-0-0--|  
E-3-3-3-3-3-3-3-3-3-0-0-0-0-0-0-0-0-0--|  
     
                                                                                                                  
Chorus  
e-------------------------------------------------------------------------|  
B-------------------------------------------------------------------------|  
G-9----9---12---9---7---5----4------9----9---12---9---7---5--7--5--4--0---|  
D-9----9---12---9---7---5----4------9----9---12---9---7---5--7--5--4--0---|  
A-7----7---10---7---5---3----2------7----7---10---7---5---3--5--3--2--0---|  
E-------------------------------------------------------------------------|  
                                                                                
                                                                                
SOLO  
e--------------------------------------------------------------|  
B--------------------------------------------------------------|  
G-9---9--12--9--9--12b-11-----9--9--12--14--12--12b14b12b-11---|  
D--------------------------------------------------------------| X 2  
A--------------------------------------------------------------|  
E--------------------------------------------------------------|  
                                                                                
  
e-12---12--15--12--12--15b-14------12--12--15--17--15--15b17b15b-14---|  
B---------------------------------------------------------------------|  
G---------------------------------------------------------------------|  
D---------------------------------------------------------------------|  
A---------------------------------------------------------------------|  
E---------------------------------------------------------------------|  
                                                                                
  
e-12---12--15--12--12--15b-14------12-12-14-12-12-14-12-14-12---------|  
B-------------------------------------------------------------13-12---|  
G---------------------------------------------------------------------|  
D---------------------------------------------------------------------|  
A---------------------------------------------------------------------|  
E---------------------------------------------------------------------|  
                                                                                
Song Structure :  
Verse x 12   
pre Chorus x 1  
Chorus x 2   
pre Chorus x 1   
verse x 12     
pre Chorus x 1   
solo  
pre Chorus x 1  
verse x 12  
pre Chorus x 1  
Chorus x 1  
  
  
 

		  

auto scroll beats size up size down change color hide chords drawings
tab show chords e-chords YouTube Clip e-chords hide all tabs e-chords go to top tab

share