We Live No More

Personal Panic

We Live No More

tabs

by  BOMBAXXX

save to print version add songbook text version e-mail correct tuner
chordsukulelecavacokeyboardtabbassdrumsharmonicaflute Guitar Pro
close

there isn't a video lesson for this song

chords

Personal Panic

	  		
Intro 

Riff I 
e|----------------------------------------------------------| 
B|----------------------------------------------------------| 
G|----------------------------------------------------------| 
D|----------------------------------------------------------| 
A|-----------14-12-------10-9-10---------10-9-------10-9-10-| 
E|-12--12-12-------12-12----------8--8-8------10-10---------| 
PM     .  .        .  .              . .      .  . 

Verse 

Riff II 
e|---------------------------------------------| 
B|---------------------------------------------| 
G|---------------------------------------------| 
D|---------------------------------------------| 
A|----14-12-14-12-10-9-10---10-9-10----10-9-10-| 
E|-12---------------------8---------10---------| 

Chorus 

Riff III 
e|------------------------------------------------------------| 
B|------------------------------------------------------------| 
G|------------------------------------------------------------| 
D|-14-14-14-14-14-14-14-14-14-14-14-1010101010-12-12-12-12-12-| 
A|-14-14-14-14-14-14-14-14-14-14-14-1010101010-12-12-12-12-12-| 
E|-12-12-12-12-12-12-12-12-12-12-12--8-8-8-8-8-10-10-10-10-10-| 

Bridge 

Riff IV 
e|--------------------------------------------------------------------| 
B|--------------------------------------------------------------------| 
G|--------------------------------------------------------------------| 
D|---------------9----------------9---------------10---------------10-| 
A|--------------10---------------10---------------12---------------12-| 
E|-12-12-12-12------12-12-12-12------12-12-12-12------12-12-12-12-----| 

Outro 

Riff I 
e|----------------------------------------------------------| 
B|----------------------------------------------------------| 
G|----------------------------------------------------------| 
D|----------------------------------------------------------| 
A|-----------14-12-------10-9-10---------10-9-------10-9-10-| 
E|-12--12-12-------12-12----------8--8-8------10-10---------| 
PM     .  .        .  .              . .      .  . 



************************************ 

| PM  Palm mute 

************************************ 
		  

See also:

tabs Deep Purple - Burn tabs Deep Purple - Lazy tabs Deep Purple - Deep Purple - Smoke On The Water tabs Deep Purple - Stormbringer tabs Deep Purple - Demon's Eye tabs Albert Hammond Jr - Holiday
e-chords

Other versions:

tabs We Live No More - Personal Panic
auto scroll beats size up size down change color hide chords drawings
tab show chords e-chords YouTube Clip e-chords hide all tabs e-chords go to top tab

share