We Live No More

All These Tears I Lost

We Live No More

tabs

by  BOMBAXXX

save to print version add songbook text version e-mail correct tuner
chordsukulelecavacokeyboardtabbassdrumsharmonicaflute Guitar Pro
close

there isn't a video lesson for this song

chords

All These Tears I Lost

	  		
Intro 

Riff I 
e|-12---12-|--8----8-|-3---3-|-10---10-| 
B|-13---13-|-10---10-|-5---5-|-12---12-| 
G|---------|---------|-------|---------| 
D|---------|---------|-------|---------| 
A|-12---12-|--8----8-|-3---3-|-10---10-| 
E|---------|---------|-------|---------| 

Riff II 
e|-------------12----------|----------8---------| 
B|-------13-------13----13-|-----10-----10---10-| 
G|-------------------------|--------------------| 
D|-------------------------|--------------------| 
A|-12-12----12-------12----|-8-8----8------8----| 
E|-------------------------|--------------------| 

e|---------3-------|-------------10----------| 
B|-----5-----5---5-|-------12-------12----12-| 
G|-----------------|-------------------------| 
D|-----------------|-------------------------| 
A|-3-3---3-----3---|-10-10----10-------10----| 
E|-----------------|-------------------------| 

Verse 

Riff I 
e|-12---12-|--8----8-|-3---3-|-10---10-| 
B|-13---13-|-10---10-|-5---5-|-12---12-| 
G|---------|---------|-------|---------| 
D|---------|---------|-------|---------| 
A|-12---12-|--8----8-|-3---3-|-10---10-| 
E|---------|---------|-------|---------| 

Interlude 

Riff I 
e|-7-6-5---5s7--7--| 
B|-8-7-6---6s8--8--| 
G|-----------------| 
D|-----------------| 
A|-7-6-5---5s7--7--| 
E|-----------------| 

Chorus 

Riff II 
e|-------------12----------|----------8---------| 
B|-------13-------13----13-|-----10-----10---10-| 
G|-------------------------|--------------------| 
D|-------------------------|--------------------| 
A|-12-12----12-------12----|-8-8----8------8----| 
E|-------------------------|--------------------| 

e|---------3-------|-------------10----------| 
B|-----5-----5---5-|-------12-------12----12-| 
G|-----------------|-------------------------| 
D|-----------------|-------------------------| 
A|-3-3---3-----3---|-10-10----10-------10----| 
E|-----------------|-------------------------| 

Outro 

Riff II 
e|-------------12----------|----------8---------| 
B|-------13-------13----13-|-----10-----10---10-| 
G|-------------------------|--------------------| 
D|-------------------------|--------------------| 
A|-12-12----12-------12----|-8-8----8------8----| 
E|-------------------------|--------------------| 

e|---------3-------|-------------10----------| 
B|-----5-----5---5-|-------12-------12----12-| 
G|-----------------|-------------------------| 
D|-----------------|-------------------------| 
A|-3-3---3-----3---|-10-10----10-------10----| 
E|-----------------|-------------------------|  

Music video: 
https://youtu.be/JzAUXbNxYi8 



************************************ 

| s  
Slide 

************************************ 
		  

See also:

tabs Deep Purple - Black Night tabs Deep Purple - Soldier Of Fortune tabs Deep Purple - Demon's Eye tabs Ira! - Envelheço na Cidade tabs Deep Purple - Smoke on the Water (correct) tabs Ira! - Tarde Vazia (Acústico)
e-chords

Other versions:

tabs We Live No More - All These Tears I Lost
auto scroll beats size up size down change color hide chords drawings
tab show chords e-chords YouTube Clip e-chords hide all tabs e-chords go to top tab

share