We Live No More

Lost In The World

We Live No More

tabs

by  BOMBAXXX

save to print version add songbook text version e-mail correct tuner
chordsukulelecavacokeyboardtabbassdrumsharmonicaflute Guitar Pro
close

there isn't a video lesson for this song

chords

Lost In The World

	  		
Intro 

Riff I 
e|---------0---------------0-------|---------0---------------0-------| 
B|-----------0---0-----------0---0-|-----------0---0-----------0---0-| 
G|---------------------------------|---------------------------------| 
D|-----5-------5-------5-------5---|-----4-------4-------4-------4---| 
A|-7-7---7---------7-7---7---------|-5-5---5---------5-5---5---------| 
E|---------------------------------|---------------------------------| 

e|---------0---------------0-------|---------0---------------0-------| 
B|-----------0---0-----------0---0-|-----------0---0-----------0---0-| 
G|---------------------------------|---------------------------------| 
D|-----2-------2-------2-------2---|-----2-------2-------2-------2---| 
A|-3-3---3---------3-3---3---------|-0-0---0---------3-3---3---------| 
E|---------------------------------|---------------------------------| 

Verse 

Riff II 
e|---------------------------------|---------------------------------| 
B|---------------------------------|---------------------------------| 
G|---------------------------------|---------------------------------| 
D|-----5-----5---5-----5-----5---5-|-----4-----4---4-----4-----4---4-| 
A|-7-7---7-7---7---7-7---7-7---7---|-5-5---5-5---5---5-5---5-5---5---| 
E|---------------------------------|---------------------------------| 

e|---------------------------------|---------------------------------| 
B|---------------------------------|---------------------------------| 
G|---------------------------------|---------------------------------| 
D|-----2-----2---2-----2-----2---2-|-----2-----2---2-----2-----2---2-| 
A|-3-3---3-3---3---3-3---3-3---3---|-0-0---0-0---0---3-3---3-3---3---| 
E|---------------------------------|---------------------------------| 

Chorus 

Riff I 
e|---------0---------------0-------|---------0---------------0-------| 
B|-----------0---0-----------0---0-|-----------0---0-----------0---0-| 
G|---------------------------------|---------------------------------| 
D|-----5-------5-------5-------5---|-----4-------4-------4-------4---| 
A|-7-7---7---------7-7---7---------|-5-5---5---------5-5---5---------| 
E|---------------------------------|---------------------------------| 

e|---------0---------------0-------|---------0---------------0-------| 
B|-----------0---0-----------0---0-|-----------0---0-----------0---0-| 
G|---------------------------------|---------------------------------| 
D|-----2-------2-------2-------2---|-----2-------2-------2-------2---| 
A|-3-3---3---------3-3---3---------|-0-0---0---------3-3---3---------| 
E|---------------------------------|---------------------------------| 

Outro 

Riff I 
e|---------0---------------0-------|---------0---------------0-------| 
B|-----------0---0-----------0---0-|-----------0---0-----------0---0-| 
G|---------------------------------|---------------------------------| 
D|-----5-------5-------5-------5---|-----4-------4-------4-------4---| 
A|-7-7---7---------7-7---7---------|-5-5---5---------5-5---5---------| 
E|---------------------------------|---------------------------------| 

e|---------0---------------0-------|---------0---------------0-------| 
B|-----------0---0-----------0---0-|-----------0---0-----------0---0-| 
G|---------------------------------|---------------------------------| 
D|-----2-------2-------2-------2---|-----2-------2-------2-------2---| 
A|-3-3---3---------3-3---3---------|-0-0---0---------3-3---3---------| 
E|---------------------------------|---------------------------------| 
		  

See also:

tabs Deep Purple - Burn tabs Deep Purple - Lazy tabs Deep Purple - Deep Purple - Smoke On The Water tabs Deep Purple - Stormbringer tabs Deep Purple - Demon's Eye tabs Albert Hammond Jr - Holiday
e-chords

Other versions:

tabs We Live No More - Lost In The World
auto scroll beats size up size down change color hide chords drawings
tab show chords e-chords YouTube Clip e-chords hide all tabs e-chords go to top tab

share