We Live No More

Anachronism

We Live No More

tabs

by  ADALGOMES

save to print version add songbook text version e-mail correct tuner
chordsukulelecavacokeyboardtabbassdrumsharmonicaflute Guitar Pro
close

there isn't a video lesson for this song

chords

Anachronism

	  		
Intro 

Riff I 
D#|---------------------|---------------------| 
A#|---------------------|---------------------| 
F#|---------------------|---------------------| 
C#|---------------------|---------------------| 
G#|---------------------|---------------------| 
C#|-2-0-2-3-0-2-0-2-3-0-|-2-0-2-3-0-2-0-2-333-| 
PM  . . . . . . . . . .   . . . . . . . . 

Riff II 
D#|---------------------|---------------------| 
A#|---------------------|---------------------| 
F#|---------------------|---------------------| 
C#|---------------------|---------------------| 
G#|---------------------|---------------------| 
C#|-2p0-2-3-0-2p0-2-3-0-|-2p0-2-3-0-2p0-2-333-| 

Verse 

Riff III 
D#|----------------|----------------|----------------|-------------------| 
A#|----------------|----------------|----------------|-------------------| 
F#|----------------|-------------77-|----------------|-------------------| 
C#|-2-2-2s3-2-2-33-|-2-2-2s3-2-2-77-|-2-2-2s3-2-2-33-|-2-2-2s3-2-2-------| 
G#|-2-2-2s3-2-2-33-|-2-2-2s3-2-2-55-|-2-2-2s3-2-2-33-|-2-2-2s3-2-2-----5-| 
C#|-2-2-2s3-2-2-33-|-2-2-2s3-2-2----|-2-2-2s3-2-2-33-|-2-2-2s3-2-2-2p0---| 
PM  . . .   . .      . . .   . .      . . .   . . ..   . . .   . . 

Riff IV 
D#|----------------|----------------|----------------|-------------------| 
A#|----------------|----------------|----------------|-------------------| 
F#|----------------|-------------77-|----------------|-------------------| 
C#|-2-2-2s3-2-2-33-|-2-2-2s3-2-2-77-|-2-2-2s3-2-2-33-|-2-2-2s3-2-2-------| 
G#|-2-2-2s3-2-2-33-|-2-2-2s3-2-2-55-|-2-2-2s3-2-2-33-|-2-2-2s3-2-2-----5-| 
C#|-2-2-2s3-2-2-33-|-2-2-2s3-2-2----|-2-2-2s3-2-2-33-|-2-2-2s3-2-2-2p0---| 

Pre Chorus 

Riff I 
D#|---------------------|---------------------| 
A#|---------------------|---------------------| 
F#|---------------------|---------------------| 
C#|---------------------|---------------------| 
G#|---------------------|---------------------| 
C#|-2-0-2-3-0-2-0-2-3-0-|-2-0-2-3-0-2-0-2-333-| 
PM  . . . . . . . . . .   . . . . . . . . 

Chorus 

Riff II 
D#|---------------------|---------------------| 
A#|---------------------|---------------------| 
F#|---------------------|---------------------| 
C#|---------------------|---------------------| 
G#|---------------------|---------------------| 
C#|-2p0-2-3-0-2p0-2-3-0-|-2p0-2-3-0-2p0-2-333-| 

Bridge 

Riff V 
D#|-------------------0----| 
A#|-------18---------18-18-| 
F#|-------14---------14-14-| 
C#|--------0-------------0-| 
G#|------------------------| 
C#|-0--0------0--000-------| 
  

Music video: 
https://youtu.be/qKdJg0hBOd4 



************************************ 

| PM  Palm mute 
| p   Pull-off 
  

************************************ 
		  

See also:

tabs Deep Purple - Black Night tabs Deep Purple - Soldier Of Fortune tabs Deep Purple - Demon's Eye tabs Ira! - Envelheço na Cidade tabs Deep Purple - Smoke on the Water (correct) tabs Ira! - Tarde Vazia (Acústico)
e-chords

Other versions:

tabs We Live No More - Anachronism
auto scroll beats size up size down change color hide chords drawings
tab show chords e-chords YouTube Clip e-chords hide all tabs e-chords go to top tab

share