We Live No More

Thats Right

We Live No More

tabs

by  HUGO_RODRIGUES

save to print version add songbook text version e-mail correct tuner
chordsukulelecavacokeyboardtabbassdrumsharmonicaflute Guitar Pro
close

there isn't a video lesson for this song

chords

Thats Right

	  		
Intro 
Riff I 
e|----------------------|----------------------| 
B|----------------------|----------------------| 
G|----------------------|----------------------| 
D|--------------------2-|----------------------| 
A|-2-2--2-2--2-2-2--2-0-|-2-2--2-2--2-2-2--2-4-| 
E|-0-0--3-0--0-0-0--3---|-0-0--3-0--0-0-0--3-5-| 

e|----------------------|----------------------| 
B|----------------------|----------------------| 
G|----------------------|----------------------| 
D|--------------------2-|-----------2-2-2--2-2-| 
A|-2-2--2-2--2-2-2--2-0-|-2-2--2-2--0-0-0--0-0-| 
E|-0-0--3-0--0-0-0--3---|-3-3--3-3-------------| 

Verse 
Riff II 
e|-0---0---2---0-|-0---0---0---2-|-0---0---2---0-|-2---2---0---0-| 
B|-0---0---2---2-|-0---0---2---2-|-0---0---2---2-|-2---2---2---2-| 
G|-1---1---0---2-|-1---1---2---0-|-1---1---0---2-|-0---0---2---2-| 
D|-2---2---0---2-|-2---2---2---0-|-2---2---0---2-|-0---0---2---2-| 
A|-2---2---2---0-|-2---2---0---2-|-2---2---2---0-|-2---2---0---0-| 
E|-0---0---3---x-|-0---0---x---3-|-0---0---3---x-|-3---3---x---x-| 

Chorus 
Riff I 
e|----------------------|----------------------| 
B|----------------------|----------------------| 
G|----------------------|----------------------| 
D|--------------------2-|----------------------| 
A|-2-2--2-2--2-2-2--2-0-|-2-2--2-2--2-2-2--2-4-| 
E|-0-0--3-0--0-0-0--3---|-0-0--3-0--0-0-0--3-5-| 

e|----------------------|----------------------| 
B|----------------------|----------------------| 
G|----------------------|----------------------| 
D|--------------------2-|-----------2-2-2--2-2-| 
A|-2-2--2-2--2-2-2--2-0-|-2-2--2-2--0-0-0--0-0-| 
E|-0-0--3-0--0-0-0--3---|-3-3--3-3-------------| 

Outro 
Riff I 
e|----------------------|----------------------| 
B|----------------------|----------------------| 
G|----------------------|----------------------| 
D|--------------------2-|----------------------| 
A|-2-2--2-2--2-2-2--2-0-|-2-2--2-2--2-2-2--2-4-| 
E|-0-0--3-0--0-0-0--3---|-0-0--3-0--0-0-0--3-5-| 

e|----------------------|----------------------| 
B|----------------------|----------------------| 
G|----------------------|----------------------| 
D|--------------------2-|-----------2-2-2--2-2-| 
A|-2-2--2-2--2-2-2--2-0-|-2-2--2-2--0-0-0--0-0-| 
E|-0-0--3-0--0-0-0--3---|-3-3--3-3-------------| 



************************************ 

| x  Dead note 

************************************ 
		  

See also:

tabs Deep Purple - Black Night tabs Deep Purple - Soldier Of Fortune tabs Deep Purple - Demon's Eye tabs Ira! - Envelheço na Cidade tabs Deep Purple - Smoke on the Water (correct) tabs Ira! - Tarde Vazia (Acústico)
e-chords

Other versions:

tabs We Live No More - Thats Right
auto scroll beats size up size down change color hide chords drawings
tab show chords e-chords YouTube Clip e-chords hide all tabs e-chords go to top tab

share