We Live No More

Are You There

We Live No More

tabs

by  BOMBAXXX

save to print version add songbook text version e-mail correct tuner
chordsukulelecavacokeyboardtabbassdrumsharmonicaflute Guitar Pro
close

there isn't a video lesson for this song

chords

Are You There

	  		Intro 

Riff I 
e|--------------------|---------------------|------------------|---------8---------| 
B|----------13--------|----------12---------|---------10-------|-----------10---10-| 
G|--------------------|---------------------|------------------|-------------------| 
D|-----10-----10---10-|-----10------10---10-|-----9------9---9-|-----9--------9----| 
A|-8-8----8------8----|-8-8----8-------8----|-0-0---0------0---|-0-0---0-----------| 
E|--------------------|---------------------|------------------|-------------------| 

Riff II 
e|-----------------|-----------------| 
B|---------5-------|---------7-------| 
G|-----------------|-----------------| 
D|-----5-----5---5-|-----7-----7---7-| 
A|-3-3---3-----3---|-5-5---5-----5---| 
E|-----------------|-----------------| 

Verse 

Riff I 
e|--------------------|---------------------|------------------|---------8---------| 
B|----------13--------|----------12---------|---------10-------|-----------10---10-| 
G|--------------------|---------------------|------------------|-------------------| 
D|-----10-----10---10-|-----10------10---10-|-----9------9---9-|-----9--------9----| 
A|-8-8----8------8----|-8-8----8-------8----|-0-0---0------0---|-0-0---0-----------| 
E|--------------------|---------------------|------------------|-------------------| 

Riff II 
e|-----------------|-----------------| 
B|---------5-------|---------7-------| 
G|-----------------|-----------------| 
D|-----5-----5---5-|-----7-----7---7-| 
A|-3-3---3-----3---|-5-5---5-----5---| 
E|-----------------|-----------------| 

Chorus 

Riff III 
e|-------------------------|-------------------------|-----------------|-----------------| 
B|-------------------------|-------------------------|-----------------|-----------------| 
G|-------------------------|-------------------------|-----------------|-----------------| 
D|-10-10-10-10-10-10-10-10-|-10-10-10-10-10-10-10-10-|-9-9-9-9-9-9-9-9-|-9-9-9-9-9-9-9-9-| 
A|--8--8--8--8--8--8--8--8-|--8--8--8--8--8--8--8--8-|-0-0-0-0-0-0-0-0-|-0-0-0-0-0-0-0-0-| 
E|-------------------------|-------------------------|-----------------|-----------------| 
PM  .  .  .  .  .  .  .  .    .  .  .  .  .  .  .  .   . . . . . . . .   . . . . . . . .   

e|-------------------------|-------------------------|-----------------|-----------------| 
B|-------------------------|-------------------------|-----------------|-----------------| 
G|-------------------------|-------------------------|-----------------|-----------------| 
D|-12-12-12-12-12-12-12-12-|-12-12-12-12-12-12-12-12-|-9-9-9-9-9-9-9-9-|-9-9-9-9-9-9-9-9-| 
A|--8--8--8--8--8--8--8--8-|--8--8--8--8--8--8--8--8-|-0-0-0-0-0-0-0-0-|-0-0-0-0-0-0-0-0-| 
E|-------------------------|-------------------------|-----------------|-----------------| 
PM  .  .  .  .  .  .  .  .    .  .  .  .  .  .  .  .   . . . . . . . .   . . . . . . . .  

Bridge 

Riff IV 
e|--------------------|--------------------|----------------------|----------------------| 
B|--------------------|--------------------|----------------------|----------------------| 
G|--------------------|--------------------|----------------------|----------------------| 
D|-10-9-7-10-9-7-10-7-|-10-9-7-10-9-7-10-7-|-12-10-9-12-10-9-12-9-|-12-10-9-12-10-9-12-9-| 
A|--0-0-0--0-0-0--0-0-|--0-0-0--0-0-0--0-0-|--0--0-0--0--0-0--0-0-|--0--0-0--0--0-0--0-0-| 
E|--------------------|--------------------|----------------------|----------------------| 

Riff V 
e|---------------------8---| 
B|-13-----------------10---| 
G|--0----------------------| 
D|-10---10-9-7---9-10------| 
A|--8------------0--0------| 
E|-------------------------| 

(Outro) 

Riff V 
e|---------------------8---| 
B|-13-----------------10---| 
G|--0----------------------| 
D|-10---10-9-7---9-10------| 
A|--8------------0--0------| 
E|-------------------------| 
  

Music video: 
https://youtu.be/0zoyNbZMVuU 



************************************ 

| PM  Palm mute 

************************************ 
		  

See also:

tabs Deep Purple - Black Night tabs Deep Purple - Soldier Of Fortune tabs Deep Purple - Demon's Eye tabs Ira! - Envelheço na Cidade tabs Deep Purple - Smoke on the Water (correct) tabs Ira! - Tarde Vazia (Acústico)
e-chords

Other versions:

tabs We Live No More - Are You There
auto scroll beats size up size down change color hide chords drawings
tab show chords e-chords YouTube Clip e-chords hide all tabs e-chords go to top tab

share