Velvet Revolver

home > Velvet Revolver

Slither (ver. 2) Tab

Velvet Revolver

Difficulty: nolevelnolevel

by eduardo%5Flyvio

tuner correct add songbook print version text version save to e-mail
chordsukulelecavacokeyboardtabbassdrumsharmonicsflute Guitar Pro
chords

Slither (ver. 2)

  		Parte 1 
 
Intro: guita 1 
 
E|-----2-----------0------------3------------2----------|--------2----2--------2----x--x--x--x---------| 
B|-----3-----------1------------3------------3----------|--------3----3---3---3----x--x--x--x---------| 
G|-----2-----------0------------0------------2----------|--------2--------2---------x--x--x--x---------| 
D|-----0-----------2------------0------------0----------|--------0---------------------------------------| 
A|-----------------3------------2------------------------|------------------------------------------------| 
E|-------------------------------3------------------------|------------------------------------------------| 
 
 
E|-------0----0--------0-----x--x--x--x----------------|------3----3-----3---x--x--x--x---------------| 
B|-------1----1---1---1-----x--x--x--x----------------|------3----3--3--3---x--x--x--x--------------| 
G|-------0--------0----------x--x--x--x----------------|------0-------0------x---x--x--x-------------| 
D|-------2-----------------------------------------------|-------0-----------------------------------------| 
A|-------3-----------------------------------------------|-------2-----------------------------------------| 
E|--------------------------------------------------------|-------3----------------------------------------| 
 
 
E|-----2--------(2)--------------------------------------|------------------------------------------------| 
B|-----3--------(3)--------------------------------------|------------------------------------------------| 
G|-----2--------(2)--------------------------------------|------------------------------------------------| 
D|-----0-------------------------------------------------|------\10----12/-------------------------------| 
A|--------------------------------------------------------|------\10--------------------------------------| 
E|--------------------------------------------------------|-------------------------------------------------| 
 
Intro: guita 2 
 
 
E|------------------------------------------------------|---------------------------------------------------| 
B|------------------------------------------------------|---------------------------------------------------| 
G|------------------------------------------------------|--------------------------------------------------| 
D|--(0)-xxxxxxxxxxxxxxxxxxxxxxxxxxxxx----|-----7----7----10--------12--------------------| 
A|------------------------------------------------------|-----5----5----8---------10--------------------| 
E|-------------------------------------------------------|--------------------------------------------------| 
 
 
E|------------------------------------------------------|----------------------------------------------------| 
B|------------------------------------------------------|----------------------------------------------------| 
G|------------------------------------------------------|----------------------------------------------------| 
D|--7---7---10-10-7------------5--------------------|--7---7---10--7-12----------------------------| 
A|--5---5---8---8--5------------3--------------------|--5---5---8---5--10-----------------------------| 
E|------------------------------------------------------|----------------------------------------------------| 
 
                                                                                           
E|------------------------------------------------------|---------------------------------------------------| 
B|------------------------------------------------------|---------------------------------------------------| 
G|------------------------------------------------------|--------------------------------------------------| 
D|--7---7---10--10-7---------------------------------|--------------------------------------------------| 
A|--5---5---8---8--5----------------------------------|--------------------------------------------------| 
E|-------------------------------------------------------|--------------------------------------------------| 
 
 
 
 
 
E|-------------------------------------------------------------------------| 
B|-------------------------------------------------------------------------| 
G|---------------------------5--------------------------------------------| 
D|---0--3--4--0--6--7--0--5--0--6--7--0--5--0--3--4---------------| 
A|---0--3--4--0--6--7--0-----0--6--7--0--5--0--3--4----------------| 
E|-------------------------------------------------------------------------| 
 
 
 
E|-------------------------------------------------------------------------| 
B|-------------------------------------------------------------------------| 
G|---------------------------5--------------------------------------------| 
D|---0--3--4--0--6--7--0--5--0--6--7--0--5--0--3--4---------------| 
A|---0--3--4--0--6--7--0-----0--6--7--0--5--0--3--4----------------| 
E|-------------------------------------------------------------------------| 
 
 
E|-------------------------------------------------------------------------| 
B|-------------------------------------------------------------------------| 
G|---------------------------5--------------------------------------------| 
D|---0--3--4--0--6--7--0--5--0--6--7--0--5--0--3--4---------------| 
A|---0--3--4--0--6--7--0-----0--6--7--0--5--0--3--4----------------| 
E|-------------------------------------------------------------------------| 
 
Guita 1                                                                                            
E|----------------------------------------------------------------------| 
B|-------6--7-----9--10--------------9--10------8---------6~~-----| 
G|---7---------7----------7-------7----------7--------7--------------|  
D|----------------------------------------------------------------------| 
A|-----------------------------------------------------------------------| 
E|-----------------------------------------------------------------------| 
 
 
 
Escute música para pegar os acordes abafados  
Obs: não abafe no final de cada compasso nas notas F  F# , e no 4 compasso 
          
E|-------------------------------------------------------------------------| 
B|-------------------------------------------------------------------------| 
G|---------------------------5--------------------------------------------| 
D|---0--3--4--0--6--7--0--5--0--6--7--0--5--0--3--4---------------| 
A|---0--3--4--0--6--7--0-----0--6--7--0--5--0--3--4----------------| 
E|-------------------------------------------------------------------------| 
 
E|-------------------------------------------------------------------------| 
B|-------------------------------------------------------------------------| 
G|---------------------------5--------------------------------------------| 
D|---0--3--4--0--6--7--0--5--0--6--7--0--5--0--3--4---------------| 
A|---0--3--4--0--6--7--0-----0--6--7--0--5--0--3--4----------------| 
E|-------------------------------------------------------------------------| 
 
E|-------------------------------------------------------------------------| 
B|-------------------------------------------------------------------------| 
G|---------------------------5--------------------------------------------| 
D|---0--3--4--0--6--7--0--5--0--6--7--0--5--0--3--4---------------| 
A|---0--3--4--0--6--7--0-----0--6--7--0--5--0--3--4----------------| 
E|-------------------------------------------------------------------------| 
 
 
 
E|------------------------------8----------------------------------------| 
 B|-------6--7-----9--10--------------9--10------8---------6~~-----| 
 G|---7---------7----------7-------7----------7--------7--------------| 
 D|----------------------------------------------------------------------| 
A|-----------------------------------------------------------------------| 
E|-----------------------------------------------------------------------| 
 
Escute música para pegar os acordes abafados  
Obs: não abafe no final de cada compasso nas notas F  F# , e no 4 compasso 
 
E|-------------------------------------------------------------------------| 
B|-------------------------------------------------------------------------| 
G|---------------------------5--------------------------------------------| 
D|---0--3--4--0--6--7--0--5--0--6--7--0--5--0--3--4---------------| 
A|---0--3--4--0--6--7--0-----0--6--7--0--5--0--3--4----------------| 
E|-------------------------------------------------------------------------| 
 
 
E|-------------------------------------------------------------------------| 
B|-------------------------------------------------------------------------| 
G|---------------------------5--------------------------------------------| 
D|---0--3--4--0--6--7--0--5--0--6--7--0--5--0--3--4---------------| 
A|---0--3--4--0--6--7--0-----0--6--7--0--5--0--3--4----------------| 
E|-------------------------------------------------------------------------| 
 
 
E|-------------------------------------------------------------------------| 
B|-------------------------------------------------------------------------| 
G|---------------------------5--------------------------------------------| 
D|---0--3--4--0--6--7--0--5--0--6--7--0--5--0--3--4---------------| 
A|---0--3--4--0--6--7--0-----0--6--7--0--5--0--3--4----------------| 
E|-------------------------------------------------------------------------| 
 
 
E|-----------------------------------------------------------------------| 
 B|----------------------------------------------------------------------| 
 G|-----------------------------5---------------------------------------| 
 D|-------3--4------6--7--------------6--7--------5---------3---4---| 
A|----5--------5---------5------5----------5-----------5-------------| 
E|----------------------------------------------------------------------| 
 
 
 
Refrão: 
 
 
E|------------------------------------------------------------------------| 
B|------------------------------------------------------------------------| 
G|------------------------------------------------------------------------| 
D|--------------------------------10-------------------------------------| 
A|--------8--9------11--12---------------11--12------10------8--9--| 
E|----10--------10----------10-------10-----------10-----10----------| 
 
 
E|-------------------------------------------------------------------------| 
B|-------------------------------------------------------------------------| 
G|-------------------------------------------------------------------------| 
D|------------------------------------10----------------------------------| 
A|--------8--10-------10--12---------------10--12-----10----9---10-| 
E|----10----------10------------10-----10-----------10-----10--------| 
 
 
 
E|-------------------------------------------------------------------------| 
B|-------------------------------------------------------------------------| 
G|-------------------------------------------------------------------------| 
D|---------------------9------10----------9------------------------------| 
A|------8--9-----12-------------------12--------10------8---9---------| 
E|---10------10---------10-------10--------10------10----------------| 
 
 
 
E|------------------------------------------------------------------------| 
B|------------------------------------------------------------------------| 
G|------------------------------------------------------------------------| 
D|--------------------------------10-------------------------------------| 
A|--------8--9------11--12---------------11--12------10------8--9--| 
E|----10--------10----------10-------10-----------10-----10----------| 
 
 
_________________________________________________________________________ 
                                                                                           
E|-------------------------------------------------------------------------| 
B|-------------------------------------------------------------------------| 
G|---------------------------5--------------------------------------------| 
D|---0--3--4--0--6--7--0--5--0--6--7--0--5--0--3--4---------------| 
A|---0--3--4--0--6--7--0-----0--6--7--0--5--0--3--4----------------| 
E|-------------------------------------------------------------------------| 
 
E|-------------------------------------------------------------------------| 
B|-------------------------------------------------------------------------| 
G|---------------------------5--------------------------------------------| 
D|---0--3--4--0--6--7--0--5--0--6--7--0--5--0--3--4---------------| 
A|---0--3--4--0--6--7--0-----0--6--7--0--5--0--3--4----------------| 
E|-------------------------------------------------------------------------| 
 
 
E|-------------------------------------------------------------------------| 
B|-------------------------------------------------------------------------| 
G|---------------------------5--------------------------------------------| 
D|---0--3--4--0--6--7--0--5--0--6--7--0--5--0--3--4---------------| 
A|---0--3--4--0--6--7--0-----0--6--7--0--5--0--3--4----------------| 
E|-------------------------------------------------------------------------| 
 
E|------------------------------8----------------------------------------| 
 B|-------6--7-----9--10--------------9--10------8---------6~~-----| 
 G|---7---------7----------7-------7----------7--------7--------------| 
 D|----------------------------------------------------------------------| 
A|-----------------------------------------------------------------------| 
E|-----------------------------------------------------------------------| 
 
 
 
E|-------------------------------------------------------------------------| 
B|-------------------------------------------------------------------------| 
G|---------------------------5--------------------------------------------| 
D|---0--3--4--0--6--7--0--5--0--6--7--0--5--0--3--4---------------| 
A|---0--3--4--0--6--7--0-----0--6--7--0--5--0--3--4----------------| 
E|-------------------------------------------------------------------------| 
 
E|-------------------------------------------------------------------------| 
B|-------------------------------------------------------------------------| 
G|---------------------------5--------------------------------------------| 
D|---0--3--4--0--6--7--0--5--0--6--7--0--5--0--3--4---------------| 
A|---0--3--4--0--6--7--0-----0--6--7--0--5--0--3--4----------------| 
E|-------------------------------------------------------------------------| 
 
E|-------------------------------------------------------------------------| 
B|-------------------------------------------------------------------------| 
G|---------------------------5--------------------------------------------| 
D|---0--3--4--0--6--7--0--5--0--6--7--0--5--0--3--4---------------| 
A|---0--3--4--0--6--7--0-----0--6--7--0--5--0--3--4----------------| 
E|-------------------------------------------------------------------------| 
 
 
E|-------------------------------------------------------------------------| 
B|-------------------------------------------------------------------------| 
G|---------------------------5--------------------------------------------| 
D|---0--3--4--0--6--7--0--5--0--6--7--0--5--0--3--4---------------| 
A|---0--3--4--0--6--7--0-----0--6--7--0--5--0--3--4----------------| 
E|-------------------------------------------------------------------------| 
 
 
 
E|-------------------------------------------------------------------------| 
B|-------------------------------------------------------------------------| 
G|---------------------------5--------------------------------------------| 
D|---0--3--4--0--6--7--0--5--0--6--7--0--5--0--3--4---------------| 
A|---0--3--4--0--6--7--0-----0--6--7--0--5--0--3--4----------------| 
E|-------------------------------------------------------------------------| 
 
E|-------------------------------------------------------------------------| 
B|-------------------------------------------------------------------------| 
G|---------------------------5--------------------------------------------| 
D|---0--3--4--0--6--7--0--5--0--6--7--0--5--0--3--4---------------| 
A|---0--3--4--0--6--7--0-----0--6--7--0--5--0--3--4----------------| 
E|-------------------------------------------------------------------------| 
 
 
E|-------------------------------------------------------------------------| 
B|-------------------------------------------------------------------------| 
G|---------------------------5--------------------------------------------| 
D|---0--3--4--0--6--7--0--5--0--6--7--0--5--0--3--4---------------| 
A|---0--3--4--0--6--7--0-----0--6--7--0--5--0--3--4----------------| 
E|-------------------------------------------------------------------------| 
 
E|-------------------------------------------------------------------------| 
B|-------------------------------------------------------------------------| 
G|---------------------------5--------------------------------------------| 
D|---0--3--4--0--6--7--0--5--0--6--7--0--5--0--3--4---------------| 
A|---0--3--4--0--6--7--0-----0--6--7--0--5--0--3--4----------------| 
E|-------------------------------------------------------------------------| 
 
Refrão: 
 
 
E|------------------------------------------------------------------------| 
B|------------------------------------------------------------------------| 
G|------------------------------------------------------------------------| 
D|--------------------------------10-------------------------------------| 
A|--------8--9------11--12---------------11--12------10------8--9--| 
E|----10--------10----------10-------10-----------10-----10----------| 
 
 
E|-------------------------------------------------------------------------| 
B|-------------------------------------------------------------------------| 
G|-------------------------------------------------------------------------| 
D|------------------------------------10----------------------------------| 
A|--------8--10-------10--12---------------10--12-----10----9---10-| 
E|----10----------10------------10-----10-----------10-----10--------| 
 
 
 
E|-------------------------------------------------------------------------| 
B|-------------------------------------------------------------------------| 
G|-------------------------------------------------------------------------| 
D|---------------------9------10----------9------------------------------| 
A|------8--9-----12-------------------12--------10------8---9---------| 
E|---10------10---------10-------10--------10------10----------------| 
 
 
 
E|------------------------------------------------------------------------| 
B|------------------------------------------------------------------------| 
G|------------------------------------------------------------------------| 
D|--------------------------------10-------------------------------------| 
A|--------8--9------11--12---------------11--12------10------8--9--| 
E|----10--------10----------10-------10-----------10-----10----------| 
 
 
 
 
E|------------------------------------------------------------------------| 
B|------------------------------------------------------------------------| 
G|------------------------------------------------------------------------| 
D|--------------------------------10-------------------------------------| 
A|--------8--9------11--12---------------11--12------10------8--9--| 
E|----10--------10----------10-------10-----------10-----10----------| 
 
 
E|-------------------------------------------------------------------------| 
B|-------------------------------------------------------------------------| 
G|-------------------------------------------------------------------------| 
D|------------------------------------10----------------------------------| 
A|--------8--10-------10--12---------------10--12-----10----9---10-| 
E|----10----------10------------10-----10-----------10-----10--------| 
 
 
 
E|-------------------------------------------------------------------------| 
B|-------------------------------------------------------------------------| 
G|-------------------------------------------------------------------------| 
D|---------------------9------10----------9------------------------------| 
A|------8--9-----12-------------------12--------10------8---9---------| 
E|---10------10---------10-------10--------10------10----------------| 
 
 
 
E|------------------------------------------------------------------------| 
B|------------------------------------------------------------------------| 
G|------------------------------------------------------------------------| 
D|--------------------------------10-------------------------------------| 
A|--------8--9------11--12---------------11--12------10------8--9--| 
E|----10--------10----------10-------10-----------10-----10----------| 
 
 
 
E|-----------------------------------------------------------------------| 
 B|----------------------------------------------------------------------| 
 G|---------------------------------------------------------------------| 
 D|---------------------------------------------------------------------| 
A|---------------------------------------------------------------------| 
E|-----10-------------------------------------------------------------| 
 

 
                                                  
 
 
E|-------------------------------------------------------------------------| 
B|-------------------------------------------------------------------------| 
G|---------------------------5--------------------------------------------| 
D|---0--3--4--0--6--7--0--5--0--6--7--0--5--0--3--4---------------| 
A|---0--3--4--0--6--7--0-----0--6--7--0--5--0--3--4----------------| 
E|-------------------------------------------------------------------------| 
 
 
 
E|-------------------------------------------------------------------------| 
B|-------------------------------------------------------------------------| 
G|---------------------------5--------------------------------------------| 
D|---0--3--4--0--6--7--0--5--0--6--7--0--5--0--3--4---------------| 
A|---0--3--4--0--6--7--0-----0--6--7--0--5--0--3--4----------------| 
E|-------------------------------------------------------------------------| 
 
 
 
 
E|-------------------------------------------------------------------------| 
B|-------------------------------------------------------------------------| 
G|---------------------------5--------------------------------------------| 
D|---0--3--4--0--6--7--0--5--0--6--7--0--5--0--3--4---------------| 
A|---0--3--4--0--6--7--0-----0--6--7--0--5--0--3--4----------------| 
E|-------------------------------------------------------------------------| 
 
 
 
E|-------------------------------------------------------------------------| 
B|-------------------------------------------------------------------------| 
G|-------------------------------------------------------------------------| 
D|---0--10--12--0--9--10--0--7--0--6--7--0--5--0------------------| 
A|---0--10--12--0--9--10--0--7--0--6--7--0--5--0--8--9-----------| 
E|---------------------------------------------------------8--9-----------| 
 
 
 
 
Refrão: 
 
 
E|------------------------------------------------------------------------| 
B|------------------------------------------------------------------------| 
G|------------------------------------------------------------------------| 
D|--------------------------------10-------------------------------------| 
A|--------8--9------11--12---------------11--12------10------8--9--| 
E|----10--------10----------10-------10-----------10-----10----------| 
 
 
E|-------------------------------------------------------------------------| 
B|-------------------------------------------------------------------------| 
G|-------------------------------------------------------------------------| 
D|------------------------------------10----------------------------------| 
A|--------8--10-------10--12---------------10--12-----10----9---10-| 
E|----10----------10------------10-----10-----------10-----10--------| 
 
 
 
 
E|-------------------------------------------------------------------------| 
B|-------------------------------------------------------------------------| 
G|-------------------------------------------------------------------------| 
D|---------------------9------10----------9------------------------------| 
A|------8--9-----12-------------------12--------10------8---9---------| 
E|---10------10---------10-------10--------10------10----------------| 
 
 
 
E|------------------------------------------------------------------------| 
B|------------------------------------------------------------------------| 
G|------------------------------------------------------------------------| 
D|--------------------------------10-------------------------------------| 
A|--------8--9------11--12---------------11--12------10------8--9--| 
E|----10--------10----------10-------10-----------10-----10----------| 
 
 
 
E|------------------------------------------------------------------------| 
B|------------------------------------------------------------------------| 
G|------------------------------------------------------------------------| 
D|--------------------------------10-------------------------------------| 
A|--------8--9------11--12---------------11--12------10------8--9--| 
E|----10--------10----------10-------10-----------10-----10----------| 
 
 
E|-------------------------------------------------------------------------| 
B|-------------------------------------------------------------------------| 
G|-------------------------------------------------------------------------| 
D|------------------------------------10----------------------------------| 
A|--------8--10-------10--12---------------10--12-----10----9---10-| 
E|----10----------10------------10-----10-----------10-----10--------| 
 
 
 
 
E|-------------------------------------------------------------------------| 
B|-------------------------------------------------------------------------| 
G|-------------------------------------------------------------------------| 
D|---------------------9------10----------9------------------------------| 
A|------8--9-----12-------------------12--------10------8---9---------| 
E|---10------10---------10-------10--------10------10----------------| 
 
 
 
E|------------------------------------------------------------------------| 
B|------------------------------------------------------------------------| 
G|------------------------------------------------------------------------| 
D|--------------------------------10-------------------------------------| 
A|--------8--9------11--12---------------11--12------10------8--9--| 
E|----10--------10----------10-------10-----------10-----10----------| 
 
 
 
 
E|-------------------------------------------------------------------------| 
B|-------------------------------------------------------------------------| 
G|---------------------------5--------------------------------------------| 
D|---0--3--4--0--6--7--0--5--0--6--7--0--5--0--3--4---------------| 
A|---0--3--4--0--6--7--0-----0--6--7--0--5--0--3--4----------------| 
E|-------------------------------------------------------------------------| 
 
 
 
E|-------------------------------------------------------------------------| 
B|-------------------------------------------------------------------------| 
G|---------------------------5--------------------------------------------| 
D|---0--3--4--0--6--7--0--5--0--6--7--0--5--0--3--4---------------| 
A|---0--3--4--0--6--7--0-----0--6--7--0--5--0--3--4----------------| 
E|-------------------------------------------------------------------------| 
 
 
 
E|-------------------------------------------------------------------------| 
B|-------------------------------------------------------------------------| 
G|---------------------------5--------------------------------------------| 
D|---0--3--4--0--6--7--0--5--0--6--7--0--5--0--3--4---------------| 
A|---0--3--4--0--6--7--0-----0--6--7--0--5--0--3--4----------------| 
E|-------------------------------------------------------------------------| 
 
 
 
E|-----8--10------7---8---------------------------------------------------------------| 
B|-----------------------------10-----9---10----8------6--7-------------------------| 
G|--7---------7-----------7-------7-----------7----7----------------7-\--------------| 
D|--------------------------------------------------------------------------------------| 
A|--------------------------------------------------------------------------------------| 
E|--------------------------------------------------------------------------------------| 
 
 

	  

Full key step upFull key step up
Half key step upHalf key step up
Half key step downHalf key step down
Full key step downFull key step down
Search Paypal
auto scroll beats size up size down change color hide chords drawings
tab show chords e-chords YouTube Clip e-chords hide all tabs e-chords go to top tab