Velvet Revolver

home > Velvet Revolver

Slither Guitarra Tablatura Tab

Velvet Revolver

Difficulty: BeginnerBeginner

by nextopan

tuner correct add songbook print version text version save to e-mail
chordsukulelecavacokeyboardtabbassdrumsharmonicsflute Guitar Pro
chords

Slither Guitarra Tablatura

  		AFINAÇÃO: SEXTA CORDA EM RÉ, AS OUTRAS FICAM NA 
AFINAÇÃO PADRÃO. PS: VOU POSTAR SOMENTE O RIFF E LICKS 
DA MÚSICA, QUE SÃO AS PARTES MAIS PROCURADAS. 

----------------------- 
------------------ 
----------------------------- 
---------------------- 
--0-3-4-0-6-7-0-10-0-6-7-0-5 
--0-3-4-0-6-7-0-10-0-6-7-0-5 


-----------------8 
----6-7---9-10-------9-10---8---6~~ ( VIBRATO ) 
--7-----7------7---7------7---7 
----------------------- 
------------------------------ 
------------------------- 



-------------------------------------------------------------------- 
----------------------------------------------------- 
----------------------------------------------------------- 
--0-3-4-0-6-7-0-10-6-7-0-5-0-3-4---0-4-5-0-6-7-0-10-0-6-7-0-5-0-4-5---0-4-5-0-7-9-0-10-7-9-0-5-0-5-4---0-3-4-0-6-7-0-10-6-7-0-5-0-3-4 
--------------------------------------------------------- 
--------------------------------------------------------------- 
	  

Search Paypal
auto scroll beats size up size down change color hide chords drawings
tab show chords e-chords YouTube Clip e-chords hide all tabs e-chords go to top tab