Velvet Revolver

home > Velvet Revolver

Slither Tab

Velvet Revolver

Difficulty: ExpertExpert

by guns%5Fn%5Froses

tuner correct add songbook print version text version save to e-mail
chordsukulelecavacokeyboardtabbassdrumsharmonicsflute Guitar Pro
chords

Slither

Year: 2004 - Album: Contraband

  		Intrudução, com baixo 
Wx8 
|--------| 
|--------| 
|--------| 
|--------| 
|--------| 
|--------| 
 
 
  N.C.(D) 
   
  H      Q.     E    +W                  H      Q.    E   +H.           Q 
|-----------------|--------------------|----------------|-------------------| 
|-----------------|--------------------|----------------|-------------------| 
|-7-----10-----12-|-(12)---------------|-7-----10-----7-|-(7)-----------5---| 
|-x------x------x-|--------------------|-x------x-----x-|---------------x---| 
|-5------8-----10-|-(10)---------------|-5------8-----5-|-(5)-----------3---| 
|-----------------|--------------------|----------------|-------------------| 
| 
|  
|            PM       PM-------------|              PM     PM-------------| 
| H.         E  E     E  E E E E E E E   H.         E E    E  E E E E E E E 
|-----------------|--------------------|----------------|-------------------| 
|-----------------|--------------------|----------------|-------------------| 
|-7---------------|--------------------|-5--------------|-------------------| 
|-7---------------|--------------------|-5--------------|-------------------| 
|------------0--0-|---0--0-0-0-0-0-0-0-|------------0-0-|--0--0-0-0-0-0-0-0-| 
|------------0--0-|---0--0-0-0-0-0-0-0-|------------0-0-|--0--0-0-0-0-0-0-0-| 
 
 
  N.C.(D) 
  H      Q.     E    +W 
|-----------------|--------------------| 
|-----------------|--------------------| 
|-7-----10-----12-|-(12)---------------| 
|-x------x------x-|--------------------| 
|-5------8-----10-|-(10)---------------| 
|-----------------|--------------------| 
| 
|            PM       PM-------------| 
| H.         E  E     E  E E E E E E E 
|-----------------|--------------------| 
|-----------------|--------------------| 
|-4---------------|--------------------| 
|-5---------------|--------------------| 
|------------0--0-|---0--0-0-0-0-0-0-0-| 
|------------0--0-|---0--0-0-0-0-0-0-0-| 
 
 
  H     Q.     E   +q    E.  E.  E  Q 
|----------------|----------------------|| 
|----------------|----------------------|| 
|-7----10------7-|-(7)------------------|| 
|-x-----x------x-|----------------------|| 
|-5-----8------5-|-(5)---x--(x)-(x)-----|| 
|----------------|-------x--(x)-(x)-----|| 
| 
| H    +E  E E E   +E  H         Q. 
|----------------|----------------------|| 
|----------------|----------------------|| 
|-2----(2)-------|----------------------|| 
|-0----(0)-------|----------------------|| 
|----------0-0-0-|-(0)----------/7\\-----|| 
|----------0-0-0-|-(0)----------/7\\-----|| 
 
 
   Riff Principal, vem após o baixo e pode ser feito também com powercords 
    $ 
    N.C.(D) 
    E E E E E E E  E   E E E E E E E E  3x 
||-------------------|------------------|| 
||o------------------|-----------------o|| 
||-------------------|------------------|| 
||-------------------|------------------|| 
||o-0-3-4-0-6-7-0-10-|-0-6-7-0-5-0-3-4-o|| 
||--0-3-4-0-6-7-0-10-|-0-6-7-0-5-0-3-4--|| 
| 
|    
|   W                  W                3x 
||-------------------|------------------|| 
||o------------------|-----------------o|| 
||-------------------|------------------|| 
||-------------------|------------------|| 
||o------------------|-----------------o|| 
||-------------------|------------------|| 
 
 
   E  E  E  E E  E  E  E    E E  E  E  E  E  E  E 
|------------------------|-------------------------|| 
|------------------------|-------------------------|| 
|------------------------|-------------------------|| 
|------------------------|-------------------------|| 
|--0--3--4--0-6--7--0-10-|--0-6--7--0--5--0--3--4--|| 
|--0--3--4--0-6--7--0-10-|--0-6--7--0--5--0--3--4--|| 
| 
|                                            ~~~ 
|  E  E  E  E E  E  E  E    E E  E  E  E  E  Q 
|------------------------|-------------------------|| 
|-------------9-10----13-|----9-10-----------------|| 
|----10-11---------------|------------12----10\\----|| 
|-12-------12------12----|-12------12----12--------|| 
|------------------------|-------------------------|| 
|------------------------|-------------------------|| 
 
 
 Verse 
  N.C.(D) 
  PM---------------------------|       PM---------------------------| 
  E E E E E E E  E   E E E E E E E E   E E E E E E E  E   E E E E E E E E 
|------------------|-----------------|------------------|-----------------| 
|------------------|-----------------|------------------|-----------------| 
|------------------|-----------------|------------------|-----------------| 
|------------------|-----------------|------------------|-----------------| 
|------------------|-----------------|------------------|-----------------| 
|-0-3-4-0-6-7-0-10-|-0-6-7-0-5-0-3-4-|-0-3-4-0-6-7-0-10-|-0-6-7-0-5-0-3-4-| 
 
 
  N.C.(D) 
  PM---------------------------| 
  E E E E E E E  E   E E E E E E E E   E E E E E E E   E   E E E E  E E E E 
|------------------|-----------------|-------------------|------------------| 
|------------------|-----------------|-------------------|------------------| 
|------------------|-----------------|-------------------|------------------| 
|------------------|-----------------|-------------------|------------------| 
|------------------|-----------------|-------------------|------------------| 
|-0-3-4-0-6-7-0-10-|-0-6-7-0-5-0-3-4-|-0-3-4-0-6-7-0--10-|-0-6-7-0--5-0-3-4-| 
| 
|  
|                                      PM-----------------------------| ~ 
| W                  W                 E E E E E E E   E   E E E E  E E Q 
|------------------|-----------------|-------------------|------------------| 
|------------------|-----------------|-------------------|------------------| 
|------------------|-----------------|-------------------|------------------| 
|------------------|-----------------|-0-3-4-0-6-7-0-/10-|-0-6-7-0-/5-0-3---| 
|------------------|-----------------|-------------------|------------------| 
|------------------|-----------------|-------------------|------------------| 
 
 
  N.C.(D) 
  PM---------------------------|       PM---------------------------| 
  E E E E E E E  E   E E E E E E E E   E E E E E E E  E   E E E E E E E E 
|------------------|-----------------|------------------|-----------------| 
|------------------|-----------------|------------------|-----------------| 
|------------------|-----------------|------------------|-----------------| 
|------------------|-----------------|------------------|-----------------| 
|------------------|-----------------|------------------|-----------------| 
|-0-3-4-0-6-7-0-10-|-0-6-7-0-5-0-3-4-|-0-3-4-0-6-7-0-10-|-0-6-7-0-5-0-3-4-| 
 
 
  N.C.(D) 
  PM---------------------------| 
  E E E E E E E  E   E E E E E E E E 
|------------------|-----------------| 
|------------------|-----------------| 
|------------------|-----------------| 
|------------------|-----------------| 
|------------------|-----------------| 
|-0-3-4-0-6-7-0-10-|-0-6-7-0-5-0-3-4-| 
| 
|  
| W                  W 
|------------------|-----------------| 
|------------------|-----------------| 
|------------------|-----------------| 
|------------------|-----------------| 
|------------------|-----------------| 
|------------------|-----------------| 
 
 
  E E E E   E  E  E  E   E E  E  E E E Q 
|----------------------|-------------------|| 
|----------------------|-------------------|| 
|----------------------|-------------------|| 
|----------------------|-------------------|| 
|-0-3-4-0---6--7--0-10-|-0-6--7--0-5-0-3---|| 
|-0-3-4-0---6--7--0-10-|-0-6--7--0-5-0-3---|| 
| 
| H         E  E  E  E   E E +H        Q 
|----------------------|-------------------|| 
|----------------------|-------------------|| 
|---------/10-10-10-10-|---7-(7)-------5\\--|| 
|---------/10-10-10-10-|---7-(7)-------5\\--|| 
|----------------------|-------------------|| 
|----------------------|-------------------|| 
 
 
 Chorus 
  D5                                     C5 
   
  E E E E E E E  E    E  E E E E E E E   E E E E E E E  E    E  E E E E E E E 
|------------------|-------------------|------------------|-------------------| 
|------------------|-------------------|------------------|-------------------| 
|------------------|-------------------|------------------|-------------------| 
|-0-3-4-0-6-7-0-10-|--0--6-7-0-5-0-3-4-|-0-3-4-0-6-7-0-10-|--0--6-7-0-5-0-3-4-| 
|------------------|-------------------|------------------|-------------------| 
|------------------|-------------------|------------------|-------------------| 
| 
|  
| W                  +W                  W                  +W 
|------------------|-------------------|------------------|-------------------| 
|------------------|-------------------|------------------|-------------------| 
|-7----------------|-(7)---------------|-5----------------|-(5)---------------| 
|-7----------------|-(7)---------------|-5----------------|-(5)---------------| 
|-5----------------|-(5)---------------|-3----------------|-(3)---------------| 
|------------------|-------------------|------------------|-------------------| 
 
 
                                                                      D.S. 
  B5                                     D5 
                                                                          ~~ 
  E E E E E E E  E    E  E E E E E E E   E E E E E E E  E    E  E E E E E Q 
|------------------|-------------------|------------------|-------------------|| 
|------------------|-------------------|------------------|-------------------|| 
|------------------|-------------------|------------------|-------------------|| 
|-0-3-4-0-6-7-0-10-|--0--6-7-0-5-0-3-4-|-0-3-4-0-6-7-0-10-|--0--6-7-0-5-0-3\\--|| 
|------------------|-------------------|------------------|-------------------|| 
|------------------|-------------------|------------------|-------------------|| 
| 
| W                  +W                  W                  +W 
|------------------|-------------------|------------------|-------------------|| 
|------------------|-------------------|------------------|-------------------|| 
|-4----------------|-(4)---------------|-2----------------|-(2)---------------|| 
|-4----------------|-(4)---------------|-0----------------|-(0)---------------|| 
|-2----------------|-(2)---------------|-0----------------|-(0)---------------|| 
|------------------|-------------------|-0----------------|-(0)---------------|| 
 
 
  D5                                     C5 
  E E E E E E E  E    E  E E E E E E E   E E E E E E E  E    E  E E E E E E E 
|------------------|-------------------|------------------|-------------------| 
|------------------|-------------------|------------------|-------------------| 
|------------------|-------------------|------------------|-------------------| 
|-0-3-4-0-6-7-0-10-|--0--6-7-0-5-0-3-4-|-0-3-4-0-6-7-0-10-|--0--6-7-0-5-0-3-4-| 
|------------------|-------------------|------------------|-------------------| 
|------------------|-------------------|------------------|-------------------| 
| 
| W                  +W                  W                  +W 
|------------------|-------------------|------------------|-------------------| 
|------------------|-------------------|------------------|-------------------| 
|-7----------------|-(7)---------------|-5----------------|-(5)---------------| 
|-7----------------|-(7)---------------|-5----------------|-(5)---------------| 
|-5----------------|-(5)---------------|-3----------------|-(3)---------------| 
|------------------|-------------------|------------------|-------------------| 
 
 
  B5                                     D5 
  E E E E E E E  E    E  E E E E E E E   E E E E E E E  E    E  E E E E E E E 
|------------------|-------------------|------------------|-------------------|| 
|------------------|-------------------|------------------|-------------------|| 
|------------------|-------------------|------------------|-------------------|| 
|-0-3-4-0-6-7-0-10-|--0--6-7-0-5-0-3-4-|-0-3-4-0-6-7-0-10-|--0--6-7-0-5-0-3-4-|| 
|------------------|-------------------|------------------|-------------------|| 
|------------------|-------------------|------------------|-------------------|| 
| 
| W                  +W                  W                  +W 
|------------------|-------------------|------------------|-------------------|| 
|------------------|-------------------|------------------|-------------------|| 
|-4----------------|-(4)---------------|-2----------------|-(2)---------------|| 
|-4----------------|-(4)---------------|-0----------------|-(0)---------------|| 
|-2----------------|-(2)---------------|-0----------------|-(0)---------------|| 
|------------------|-------------------|-0----------------|-(0)---------------|| 
 
 
 Breakdown 
  D5                        N.C.(D) 
   
  > 
  W          +W             W          W     3x 
|----------|------------||-----------|-------|| 
|----------|------------||o----------|------o|| 
|-7--------|-(7)--------||-----------|-------|| 
|-7--------|-(7)--------||-----------|-------|| 
|-5--------|-(5)--------||o----------|------o|| 
|----------|------------||-----------|-------|| 
 
 
 Guitar Solo 
  D5 
   
   H.                +E    E        +Q      S  S  E        +H 
|--------------------------------|--------------------------------------| 
|-13b15=============(13)r-13b15==|=(13)r---13p10-13b15====(13)r---------| 
|--------------------------------|--------------------------------------| 
|--------------------------------|--------------------------------------| 
|--------------------------------|--------------------------------------| 
|--------------------------------|--------------------------------------| 
| 
|  
|           PM|                          PM       PM----| 
|  Q      E S S E E   E    E        +E   E  E     S     S   E   E E E 
|--------------------------------|--------------------------------------| 
|--------------------------------|--------------------------------------| 
|--------------------------------|--------------------------------------| 
|--7------7-----5-7--------7-----|--(7)-----7---------------5---7-7-----| 
|--5------5-5-5-5-5--------5-----|--(5)--5--5-----5-----5---5---5-5-0---| 
|--------------------------------|----------------------------------0---| 
| 
|  
|         PM----|     PM                    PM------------|         PM| 
|  Q      E E   E E   E    E        +Q      E     E         E   Q   S S 
|--------------------------------|--------------------------------------| 
|--------------------------------|--------------------------------------| 
|--7--------------7--------7-----|--(7)-------------------------7-------| 
|--7--------------7--------7-----|--(7)-------------------------7-------| 
|--5------5-5---5-5---5----5-----|--(5)-----5-----5---------5---5---5-5-| 
|--------------------------------|--------------------------------------| 
 
 
  C5 
   H.                +E    E        +Q      Q         Q         Q 
|--------------------------------|-------------------------------------------| 
|-15b17=============(15)r-15b17==|=(15)r---15b17-----15b17.5---15b17.5-------| 
|--------------------------------|-------------------------------------------| 
|--------------------------------|-------------------------------------------| 
|--------------------------------|-------------------------------------------| 
|--------------------------------|-------------------------------------------| 
| 
|           PM|                          PM      PM| 
|  Q      E S S E E   E    E        +E   E  E    S S  E      E  E      E 
|--------------------------------|-------------------------------------------| 
|--------------------------------|-------------------------------------------| 
|--------------------------------|-------------------------------------------| 
|--5------5-----3-5--------5-----|--(5)-----5---------3------5--5------------| 
|--3------3-3-3-3-3--------3-----|--(3)--3--3----3-3--3------3--3------0-----| 
|--------------------------------|-------------------------------------0-----| 
| 
|         PM----|     PM                    PM-------|                 PM| 
|  Q      E E   E E   E    E        +Q      E    E    E      Q         S S 
|--------------------------------|-------------------------------------------| 
|--------------------------------|-------------------------------------------| 
|--5--------------5--------5-----|--(5)----------------------5---------------| 
|--5--------------5--------5-----|--(5)----------------------5---------------| 
|--3------3-3---3-3---3----3-----|--(3)-----3----3----3------3---------3-3---| 
|--------------------------------|-------------------------------------------| 
 
 
  B5 
              |---3---| 
   Q       E  S  S    Q    +E.    S  E 
|-----------------------------------15b17==| 
|-15b18===15r15p13h==15---(15)---13--------| 
|------------------------------------------| 
|------------------------------------------| 
|------------------------------------------| 
|------------------------------------------| 
| 
|             PM---| 
|  Q       E  S    S    E   E  E     E 
|------------------------------------------| 
|------------------------------------------| 
|------------------------------------------| 
|--5-------5------------5---5--------5-----| 
|--2-------2--2----2----2---2--------2-----| 
|------------------------------------------| 
| 
|          PM-----------|      PM 
|  Q       E  E         E   E  E     E 
|------------------------------------------| 
|------------------------------------------| 
|--4------------------------4--------4-----| 
|--4------------------------4--------4-----| 
|--2-------2--2---------2---2--2-----2-----| 
|------------------------------------------| 
 
 
   +E   +S       +E     +S       +Q.        +S   +S   S  S 
|-(15)r(15)b17==(15)r==(15)b17==(15)-------(15)r(15)-14-15-| 
|----------------------------------------------------------| 
|----------------------------------------------------------| 
|----------------------------------------------------------| 
|----------------------------------------------------------| 
|----------------------------------------------------------| 
| 
|        PM                       PM-| 
|   E    E           E            S  S E E   E        E 
|----------------------------------------------------------| 
|----------------------------------------------------------| 
|----------------------------------------------------------| 
|---5----------------5-----------------5-5---5-------------| 
|---2----2-----------2------------2--2-3-3---3--------0----| 
|-----------------------------------------------------0----| 
| 
|                    PM----------------|              PM| 
|   Q                E            E    E Q            S  S 
|----------------------------------------------------------| 
|----------------------------------------------------------| 
|---4------------------------------------4-----------------| 
|---4------------------------------------4-----------------| 
|---2----------------2------------2----2-2------------2--2-| 
|----------------------------------------------------------| 
 
 
  D5 
            |---3---|           |--3--| 
   S  S  S  S  S    S  S  S  S  S  S  S  S  S  S  S  S  S 
|-15p14p12-14p12s==10-12p10----------10-------------------| 
|---------------------------13p12h13----13p12p10-------10-| 
|------------------------------------------------12-13----| 
|---------------------------------------------------------| 
|---------------------------------------------------------| 
|---------------------------------------------------------| 
| 
|                         PM| 
|  Q             E        S  S  E        E     E     E 
|---------------------------------------------------------| 
|---------------------------------------------------------| 
|---------------------------------------------------------| 
|--7-------------7--------------5--------7-----------7----| 
|--5-------------5--------5--5--5--------5-----------5----| 
|---------------------------------------------------------| 
| 
|                PM------------|               PM 
|  Q             E        E     E        E     E     E 
|---------------------------------------------------------| 
|---------------------------------------------------------| 
|--7-------------------------------------7-----------7----| 
|--7-------------------------------------7-----------7----| 
|--5-------------5--------5-----5--------5-----5-----5----| 
|---------------------------------------------------------| 
 
 
   |----3-----|  |---3---|          |---3---| 
   E     E    E  E  E    E    E     E  E    E  +E 
|-----------------------------------------------------| 
|-----------------------------------------------------| 
|-12b14-12---11-12------10---12b14-12-10--------------| 
|------------------12----------------------12-(12)----| 
|-----------------------------------------------------| 
|-----------------------------------------------------| 
| 
|          PM         PM---| 
| +E       E     E    S    S  E     E    E      E 
|-----------------------------------------------------| 
|-----------------------------------------------------| 
|-----------------------------------------------------| 
|-(7)------------7------------5-----7----7------------| 
|-(5)------5-----5----5----5--5-----5----5------0-----| 
|-----------------------------------------------0-----| 
| 
|                PM----------|                  PM-| 
| +Q             E    E       E     Q           S  S 
|-----------------------------------------------------| 
|-----------------------------------------------------| 
|-(7)-------------------------------7-----------------| 
|-(7)-------------------------------7-----------------| 
|-(5)------------5----5-------5-----5-----------5--5--| 
|-----------------------------------------------------| 
 
 
  D5 
   Q       +Q          S     S  S  S  S     S  S  S 
|---------------------------------------------------| 
|---------------------------10h13p10-------10h13p10-| 
|-12pb13r=(12)b14-----12b14----------12b14----------| 
|---------------------------------------------------| 
|---------------------------------------------------| 
|---------------------------------------------------| 
| 
|                 PM| 
|  Q        E     S S  E        E     E        E 
|---------------------------------------------------| 
|---------------------------------------------------| 
|---------------------------------------------------| 
|--7--------7----------7--------7--------------7----| 
|--5--------5-----5-5--5--------5--------------5----| 
|---------------------------------------------------| 
| 
|           PM--------|               PM 
|  Q        E     E    E        E     E        E 
|---------------------------------------------------| 
|---------------------------------------------------| 
|--7----------------------------7--------------7----| 
|--7----------------------------7--------------7----| 
|--5--------5-----5----5--------5-----5--------5----| 
|---------------------------------------------------| 
 
 
   S     S  S  S  S     S  S  S  S     S  S  S  S     S  S  S 
|-------------------------------------------------------------| 
|-------10h13p10-------10h13p10-------10h13p10-------10h13p10-| 
|-12b14----------12b14----------12b14----------12b14----------| 
|-------------------------------------------------------------| 
|-------------------------------------------------------------| 
|-------------------------------------------------------------| 
| 
|           PM             PM| 
| +E        E     E        S  S  E        E     Q 
|-------------------------------------------------------------| 
|-------------------------------------------------------------| 
|-------------------------------10-------10----10\\------------| 
|-(7)-------------7--------------x--------x-----x-------------| 
|-(5)-------5-----5--------5--5--8--------8-----8\\------------| 
|-------------------------------------------------------------| 
| 
|                 PM------------|                        PM| 
| +Q              E        E     E        Q              S  S 
|-------------------------------------------------------------| 
|-------------------------------------------------------------| 
|-(7)-------------------------------------7-------------------| 
|-(7)-------------------------------------7-------------------| 
|-(5)-------------5--------5-----5--------5--------------5--5-| 
|-------------------------------------------------------------| 
 
 
  C5 
   S     S  S  S  S     S  S  S  S     S  S  S  S     S  S  S 
|-------------------------------------------------------------| 
|-------10h13p10-------10h13p10-------10h13p10-------10h13p10-| 
|-12b14----------12b14----------12b14----------12b14----------| 
|-------------------------------------------------------------| 
|-------------------------------------------------------------| 
|-------------------------------------------------------------| 
| 
|                          PM| 
|  Q              E        S  S  E        E     E        E 
|-------------------------------------------------------------| 
|-------------------------------------------------------------| 
|-------------------------------------------------------------| 
|--5--------------5--------------3--------5--------------5----| 
|--3--------------3--------3--3--3--------3--------------3----| 
|-------------------------------------------------------------| 
| 
|                 PM------------|               PM 
|  Q              E        E     E        E     E        E 
|-------------------------------------------------------------| 
|-------------------------------------------------------------| 
|--5--------------------------------------5--------------5----| 
|--5--------------------------------------5--------------5----| 
|--3--------------3--------3-----3--------3-----3--------3----| 
|-------------------------------------------------------------| 
 
 
   S     S  S  S  S     S  S  S  Q        E     S  S 
|----------------------------------------------------| 
|-------10h13p10-------10h13p10-13b15----13b15-13p10-| 
|-12b14----------12b14-------------------------------| 
|----------------------------------------------------| 
|----------------------------------------------------| 
|----------------------------------------------------| 
| 
|           PM             PM| 
| +E        E     E        S  S  E     E  Q 
|----------------------------------------------------| 
|----------------------------------------------------| 
|-------------------------------10----10-10\\---------| 
|-(5)-------------5--------------x-----x--x----------| 
|-(3)-------3-----3--------3--3--8-----8--8\\---------| 
|----------------------------------------------------| 
| 
|                 PM------------|               PM| 
| +Q              E        E     E     Q        S  S 
|----------------------------------------------------| 
|----------------------------------------------------| 
|-(5)----------------------------------5-------------| 
|-(5)----------------------------------5-------------| 
|-(3)-------------3--------3-----3-----3--------3--3-| 
|----------------------------------------------------| 
 
 
  B5 
   S     S  S  S  S     S  S  S  S     S  S  S  S     S  S  S 
|-------10-------------10-------------10-------------10-------| 
|-13b15----13p10----------13p10-13b15----13p10----------13p10-| 
|----------------12b14-------------------------12b14----------| 
|-------------------------------------------------------------| 
|-------------------------------------------------------------| 
|-------------------------------------------------------------| 
| 
|                          PM| 
|  Q              E        S  S  E        E     E        E 
|-------------------------------------------------------------| 
|-------------------------------------------------------------| 
|-------------------------------------------------------------| 
|--5--------------5--------------5--------5--------------5----| 
|--2--------------2--------2--2--2--------2--------------2----| 
|-------------------------------------------------------------| 
| 
|                 PM------------|               PM 
|  Q              E        E     E        E     E        E 
|-------------------------------------------------------------| 
|-------------------------------------------------------------| 
|--4--------------------------------------4--------------4----| 
|--4--------------------------------------4--------------4----| 
|--2--------------2--------2-----2--------2-----2--------2----| 
|-------------------------------------------------------------| 
 
 
                                C5 
   S     S  S  S  S     S  S  S  Q        E     E 
|-------10-------------10-------13b15----13b15-13---| 
|-13b15----13p10----------13p10---------------------| 
|----------------12b14------------------------------| 
|---------------------------------------------------| 
|---------------------------------------------------| 
|---------------------------------------------------| 
| 
|           PM             PM| 
|  E        E     E        S  S  E     E  Q 
|---------------------------------------------------| 
|---------------------------------------------------| 
|-------------------------------10----10-10\\--------| 
|--5--------------5--------------x-----x--x---------| 
|--2--------2-----2--------2--2--8-----8--8\\--------| 
|---------------------------------------------------| 
| 
|                 PM------------|               PM| 
|  Q              E        E     E     E +E     S S 
|---------------------------------------------------| 
|---------------------------------------------------| 
|--4-----------------------------------5-(5)--------| 
|--4-----------------------------------5-(5)--------| 
|--2--------------2--------2-----3-----3-(3)----3-3-| 
|---------------------------------------------------| 
 
 
  D5 
   +Q         E  S  S  Q       E  E 
|-(13)b13.5--13p10------------------| 
|------------------10-13b15---------| 
|-----------------------------12p10-| 
|-----------------------------------| 
|-----------------------------------| 
|-----------------------------------| 
| 
|                PM| 
|   Q         E  S  S  E    E  E  E 
|-----------------------------------| 
|-----------------------------------| 
|-----------------------------------| 
|---7---------7--------5----7-----7-| 
|---5---------5--5--5--5----5-----5-| 
|-----------------------------------| 
| 
|             PM------|        PM 
|   Q         E  E     E    E  E  E 
|-----------------------------------| 
|-----------------------------------| 
|---7-----------------------7-----7-| 
|---7-----------------------7-----7-| 
|---5---------5--5-----5----5--5--5-| 
|-----------------------------------| 
 
 
  F5 
   S     +S   S  S  S  S  S  S  S  S  S  S  S S  S S 
|----------------------------------------------------|| 
|----------------------------------------------------|| 
|-12b14r(12)p10----12p10-----------------------------|| 
|---------------12-------12p10-12-10-----------------|| 
|------------------------------------12-11-10s8-10-8-|| 
|----------------------------------------------------|| 
| 
|  E          E     E     E     E     E     E    E 
|----------------------------------------------------|| 
|----------------------------------------------------|| 
|-10---------10----10----10----10----10----10---10---|| 
|--x----------x-----x-----x-----x-----x-----x----x---|| 
|--8----------8-----8-----8-----8-----8-----8----8---|| 
|----------------------------------------------------|| 
| 
|                         PM| 
| +E          E     E     S  S  E     E     Q 
|----------------------------------------------------|| 
|----------------------------------------------------|| 
|-(7)------------------------------------------------|| 
|-(7)--------10----10----------10----10----10--------|| 
|-(5)---------8-----8-----8--8--8-----8-----8--------|| 
|----------------------------------------------------|| 
 
 
 Verse 
  N.C.(D) 
   
   E E E E E E E  E     E  E E E E E E E 
|-------------------|--------------------| 
|-------------------|--------------------| 
|-------------------|--------------------| 
|-------------------|--------------------| 
|--0-3-4-0-6-7-0-10-|---0--6-7-0-5-0-3-4-| 
|--0-3-4-0-6-7-0-10-|---0--6-7-0-5-0-3-4-| 
| 
|  
|                       ~~~~~~~~~~~~~~~~~~ 
|  W                   +W 
|-------------------|--------------------| 
|-------------------|--------------------| 
|-------------------|--------------------| 
|-12----------------|-(12)---------------| 
|-------------------|--------------------| 
|-------------------|--------------------| 
 
 
    E  E E E E E E  E     E  E E E E E E E 
|---------------------|--------------------| 
|---------------------|--------------------| 
|---------------------|--------------------| 
|---------------------|--------------------| 
|---0--3-4-0-6-7-0-10-|---0--6-7-0-5-0-3-4-| 
|---0--3-4-0-6-7-0-10-|---0--6-7-0-5-0-3-4-| 
| 
|   > 
|~~~~~~~~~~~~~~~~~~~~~~~~~~~~ 
|  +W                    +W 
|---------------------|--------------------| 
|---------------------|--------------------| 
|---------------------|--------------------| 
|-(12)----------------|-(12)---------------| 
|---------------------|--------------------| 
|---------------------|--------------------| 
 
 
  N.C.(D) 
  E E E E E E E  E   E E E E E E E E 
|------------------|-----------------| 
|------------------|-----------------| 
|------------------|-----------------| 
|------------------|-----------------| 
|-0-3-4-0-6-7-0-10-|-0-6-7-0-5-0-3-4-| 
|-0-3-4-0-6-7-0-10-|-0-6-7-0-5-0-3-4-| 
| 
| W                  W 
|------------------|-----------------| 
|------------------|-----------------| 
|------------------|-----------------| 
|------------------|-----------------| 
|------------------|-----------------| 
|------------------|-----------------| 
 
 
  E  E  E E  E  E E  E   E  E  E E  E  E  E E 
|----------------------|----------------------|| 
|----------------------|----------------------|| 
|----------------------|----------------------|| 
|----------------------|----------------------|| 
|-0-10-12-0--7-10-0--7-|-0--6--7-0--5--0--3-4-|| 
|-0-10-12-0--9-10-0--7-|-0--6--7-0--5--0--3-4-|| 
| 
| E  E  E E  E  E E  E   E  E  E E  E  E  Q 
|----------------------|----------------------|| 
|---13-15---12-13------|----------------------|| 
|-------------------14-|---13-14---12----10---|| 
|----------------------|--------------12------|| 
|----------------------|----------------------|| 
|----------------------|----------------------|| 
 
 
 Out-Chorus 
  D5                                     C5 
  Gtr I 
  E E E E E E E  E    E  E E E E E E E   E E E E E E E  E    E  E E E E E E E 
|------------------|-------------------|------------------|-------------------| 
|------------------|-------------------|------------------|-------------------| 
|------------------|-------------------|------------------|-------------------| 
|-0-3-4-0-6-7-0-10-|--0--6-7-0-5-0-3-4-|-0-3-4-0-6-7-0-10-|--0--6-7-0-5-0-3-4-| 
|------------------|-------------------|------------------|-------------------| 
|------------------|-------------------|------------------|-------------------| 
| 
|  
| W                  +W                  W                  +W 
|------------------|-------------------|------------------|-------------------| 
|------------------|-------------------|------------------|-------------------| 
|-7----------------|-(7)---------------|-5----------------|-(5)---------------| 
|-7----------------|-(7)---------------|-5----------------|-(5)---------------| 
|-5----------------|-(5)---------------|-3----------------|-(3)---------------| 
|------------------|-------------------|------------------|-------------------| 
 
 
  B5                                     D5 
  E E E E E E E  E    E  E E E E E E E    E     E E   E           E  E E  E 
|------------------|-------------------|---------------------------------------| 
|------------------|-------------------|---------------------------------------| 
|------------------|-------------------|---------------------------------------| 
|-0-3-4-0-6-7-0-10-|--0--6-7-0-5-0-3-4-|--0-----3-4---0-----------6--7-0-10----| 
|------------------|-------------------|---------------------------------------| 
|------------------|-------------------|---------------------------------------| 
| 
| W                  +W                   W 
|------------------|-------------------|---------------------------------------| 
|------------------|-------------------|---------------------------------------| 
|-4----------------|-(4)---------------|--2------------------------------------| 
|-4----------------|-(4)---------------|--0------------------------------------| 
|-2----------------|-(2)---------------|--0------------------------------------| 
|------------------|-------------------|--0------------------------------------| 
| 
|  
|                                                     |---3----| 
| W                   W                   Q.         +S   +S   S  Q.      E 
|------------------|-------------------|---------------------------------------| 
|------------------|-------------------|-15b18======(15)r(15)p13-15------13b15-| 
|------------------|-------------------|---------------------------------------| 
|------------------|-------------------|---------------------------------------| 
|------------------|-------------------|---------------------------------------| 
|------------------|-------------------|---------------------------------------| 
 
 
    E   E  E     E  E     E     E     E 
|----------------------------------------| 
|----------------------------------------| 
|----------------------------------------| 
|---0---6--7-----0--5-----0-----3-----4--| 
|----------------------------------------| 
|----------------------------------------| 
| 
|  +W 
|----------------------------------------| 
|----------------------------------------| 
|--(2)-----------------------------------| 
|--(0)-----------------------------------| 
|--(0)-----------------------------------| 
|--(0)-----------------------------------| 
| 
|  +E   E  E     E  E     E     S  S  E 
|------10--------------------------------| 
|-(13)----13b15r10-----------------------| 
|------------------12b14-12b14-12p10-----| 
|------------------------------------12--| 
|----------------------------------------| 
|----------------------------------------| 
 
 
  D5 
   E     E E E E E E  E     E   E E E E E E E 
|-----------------------|---------------------| 
|-----------------------|---------------------| 
|-----------------------|---------------------| 
|--0-----3-4-0-6-7-0-10-|---0---6-7-0-5-0-3-4-| 
|-----------------------|---------------------| 
|-----------------------|---------------------| 
| 
|  W                       +W 
|-----------------------|---------------------| 
|-----------------------|---------------------| 
|--7--------------------|--(7)----------------| 
|--7--------------------|--(7)----------------| 
|--5--------------------|--(5)----------------| 
|-----------------------|---------------------| 
| 
|                           > 
|  W                       +W 
|-----------------------|---------------------| 
|-13b15=================|=(13)r---------------| 
|-----------------------|---------------------| 
|-----------------------|---------------------| 
|-----------------------|---------------------| 
|-----------------------|---------------------| 
 
 
  C5 
  E E E E E E E  E    E  E E E E E E E 
|------------------|-------------------| 
|------------------|-------------------| 
|------------------|-------------------| 
|-0-3-4-0-6-7-0-10-|--0--6-7-0-5-0-3-4-| 
|------------------|-------------------| 
|------------------|-------------------| 
| 
| W                  +W 
|------------------|-------------------| 
|------------------|-------------------| 
|-5----------------|-(5)---------------| 
|-5----------------|-(5)---------------| 
|-3----------------|-(3)---------------| 
|------------------|-------------------| 
| 
| W                   W 
|------------------|-------------------| 
|------------------|-------------------| 
|------------------|-------------------| 
|------------------|-------------------| 
|------------------|-------------------| 
|------------------|-------------------| 
 
 
  B5                                     D5 
  E E E E E E E  E    E  E E E E E E E    E    E E E  E  E  E  E 
|------------------|-------------------|-------------------------| 
|------------------|-------------------|-------------------------| 
|------------------|-------------------|-------------------------| 
|-0-3-4-0-6-7-0-10-|--0--6-7-0-5-0-3-4-|--0----3-4-0--6--7--0-10-| 
|------------------|-------------------|-------------------------| 
|------------------|-------------------|-------------------------| 
| 
| W                  +W                   W 
|------------------|-------------------|-------------------------| 
|------------------|-------------------|-------------------------| 
|-4----------------|-(4)---------------|--2----------------------| 
|-4----------------|-(4)---------------|--0----------------------| 
|-2----------------|-(2)---------------|--0----------------------| 
|------------------|-------------------|--0----------------------| 
| 
| W                   W                   H           E  E  E  E 
|------------------|-------------------|-17b20-------17-15-13----| 
|------------------|-------------------|----------------------15-| 
|------------------|-------------------|-------------------------| 
|------------------|-------------------|-------------------------| 
|------------------|-------------------|-------------------------| 
|------------------|-------------------|-------------------------| 
 
 
   E    E     E    E     E    E     E    E 
|----------------------------------------------|| 
|----------------------------------------------|| 
|----------------------------------------------|| 
|--0----6-----7----0-----5----0-----3----4-----|| 
|----------------------------------------------|| 
|----------------------------------------------|| 
| 
| +W 
|----------------------------------------------|| 
|----------------------------------------------|| 
|-(2)------------------------------------------|| 
|-(0)------------------------------------------|| 
|-(0)------------------------------------------|| 
|-(0)------------------------------------------|| 
| 
|  |---3---|  |---3---|  |---3---|  |---3---| 
|  E  E    E  E  E    E  E  E    E  E  E    E 
|----------------------------------------------|| 
|-13p10----------------------------------------|| 
|---------12-12p10------10h12p==10-------------|| 
|--------------------12------------12p10-------|| 
|------------------------------------------12--|| 
|----------------------------------------------|| 
 
 
 Outro 
  N.C.(D) 
   
   E  E  E  E E  E  E  E    E E  E  E  E  E  E  E    E  E  E  E E  E  E  E 
|------------------------|------------------------|------------------------| 
|------------------------|------------------------|------------------------| 
|------------------------|------------------------|------------------------| 
|------------------------|------------------------|------------------------| 
|--0--3--4--0-6--7--0-10-|--0-6--7--0--5--0--3--4-|--0--3--4--0-6--7--0-10-| 
|--0--3--4--0-6--7--0-10-|--0-6--7--0--5--0--3--4-|--0--3--4--0-6--7--0-10-| 
| 
|  
|  E  E  E  E E  E  E  E    E E  E  E  E  E  E  E    E  E  E  E E  E  E  E 
|------------------------|------------------------|------------------------| 
|-------------9-10----13-|----9-10----------------|-------------9-10----13-| 
|----10-11---------------|------------12----10-11-|----10-11---------------| 
|-12-------12------12----|-12------12----12-------|-12-------12------12----| 
|------------------------|------------------------|------------------------| 
|------------------------|------------------------|------------------------| 
 
 
  N.C.(D) 
   E E  E  E  E  E  E  E    E  E  E  E E  E  E  E    E E  E  E  E  E  E  E 
|------------------------|------------------------|------------------------| 
|------------------------|------------------------|------------------------| 
|------------------------|------------------------|------------------------| 
|------------------------|------------------------|------------------------| 
|--0-6--7--0--5--0--3--4-|--0--3--4--0-6--7--0-10-|--0-6--7--0--5--0--3--4-| 
|--0-6--7--0--5--0--3--4-|--0--3--4--0-6--7--0-10-|--0-6--7--0--5--0--3--4-| 
| 
|  E E  E  E  E  E  E  E    E  E  E  E E  E  E  E    E E  E  E  E  E  E  E 
|------------------------|------------------------|------------------------| 
|----9-10----------------|-------------9-10----13-|----9-10----------------| 
|------------12----10-11-|----10-11---------------|------------12----10-11-| 
|-12------12----12-------|-12-------12------12----|-12------12----12-------| 
|------------------------|------------------------|------------------------| 
|------------------------|------------------------|------------------------| 
 
 
  N.C.(D) 
  E  E  E E  E  E E  E   E  E  E E  E  E  E E    Q.  E H 
|----------------------|----------------------|-------------*| 
|----------------------|----------------------|-------------*| 
|----------------------|----------------------|-------------*| 
|----------------------|----------------------|-------------*| 
|-0-10-12-0--7-10-0--7-|-0--6--7-0--5--0--3-4-|--0----------*| 
|-0-10-12-0--9-10-0--7-|-0--6--7-0--5--0--3-4-|--0----------*| 
| 
| E  E  E E  E  E E  E   E  E  E E  E  E  Q      Q.  E H 
|----------------------|----------------------|-------------*| 
|---13-15---12-13------|----------------------|-------------*| 
|-------------------14-|---13-14---12----10---|-------------*| 
|----------------------|--------------12------|-12\\---------*| 
|----------------------|----------------------|-------------*| 
|----------------------|----------------------|-------------*| 
 
Esse tablatura foi cedida gentilmente por 
marcus vinícius traduçã.
	  

Search Paypal
auto scroll beats size up size down change color hide chords drawings
tab show chords e-chords YouTube Clip e-chords hide all tabs e-chords go to top tab