Metallica

home > Metallica

Slither Tab

Metallica

Difficulty: nolevelnolevel

tuner correct add songbook print version text version save to e-mail
chordsukulelecavacokeyboardtabbassdrumsharmonicsflute Guitar Pro
chords

Slither

Year: 1997 - Album: Reload

  		 
Intro: 
       
eb|-----------|---------| 
Bb|-----------|---------| 
Gb|-----0-----|---------| 
Db|---2-----4x|-8-7-5-2-| 
Ab|-2-----1---|-8-7-5-2-| 
Eb|-0---------|-6-5-3-0-| 
 
Verso: 
 
eb|---------------|-------------------| 
Bb|---------------|-------------------| 
Gb|---------------|-------------------| 
Db|-22-5-2-7979---|-22-5-2-87-5-------| 
Ab|-22-5-2-7979-2x|-22-5-2-87-5-------| 
Eb|-00-3-0-5757---|-00-3-0-65-3-------| 
 
Pré-Refrão: 
 
e|-----------------| 
B|-----------------| 
G|-----------------| 
D|-333/2/333-------| 
A|-333/2/333-------| 
E|-111/0/111-------| 
 
 
Refrão: 
#12x 
eb|-------------------------------------------| 
Bb|-------------------------------------------| 
Gb|---------------776-555555------------------| 
Db|-998-7#-776-5#-776-555555-777777xx7xx7xx---| 
Ab|-998-7#-776-5#-554-333333-777777xx7xx7xx---| 
Eb|-776-5#-554-3#------------555555xx5xx5xx---| 
 
outro: 
 
eb|-------------------| 
Bb|-------------------| 
Gb|-----0-2/3\2/0-----| 
Db|---2-----------2---| 
Ab|-2-----------------| 
Eb|-0-----------------| 
 
 
_______________________________________________________ 
Contribuição: Douglas Ferlini([email protected]) 

	  

Search Paypal
auto scroll beats size up size down change color hide chords drawings
tab show chords e-chords YouTube Clip e-chords hide all tabs e-chords go to top tab