Turnover

Cutting My Fingers Off

Turnover

tabs

by  GUSTSILVA

save to print version add songbook text version e-mail correct tuner
chordsukulelecavacokeyboardtabbassdrumsharmonicaflute Guitar Pro
close

there isn't a video lesson for this song

chords

Cutting My Fingers Off

	  		 


0:00 - 1:39 


GUITAR 1 (Comes in at 0:20) 

E|-----------------------------------| 
B|-----------------------------------|   x 26 
G|----------0---------0---------0----| 
D|------0---------0---------0--------|   This riff is played continuously 
A|--3-3---3---3-3---3---3-3---3---3--|   from 0:20 - 1:39 
E|-----------------------------------| 



GUITAR 2 (Comes in at 0:26) 

E|------------------------------------|------------------------------------| 
B|------------------------------------|------------------------------------| 
G|------------------------------------|------------------------------------| 
D|------------0~----------------------|------------0~----------------------| 
A|--0~-------------2~---0~------------|--0~-------------2~---0~------------| 
E|-------0~------------------0~---3~--|-------0~------------------0~---3~--| 
 | 
 | 
E|-----------------7-------------------|-----------------7----------------| 
B|------8---10p8-------8-----10p8---8--|------8---10p8-------8---------8--| 
G|--7-7---7------7---------7------7----|--7-7---7------7---------7-7h9----| 
D|-------------------------------------|----------------------------------| 
A|-------------------------------------|----------------------------------| 
E|-------------------------------------|----------------------------------| 
 | 
 | 
E|-----------------7-------------------|-----------------7---------------------| 
B|------8---10p8-------8-----10p8---8--|------8---10p8-------8---------8-------| 
G|--7-7---7------7---------7------7----|--7-7---7------7---------7-7h9-----7~--| 
D|-------------------------------------|---------------------------------------| 
A|-------------------------------------|---------------------------------------| 
E|-------------------------------------|---------------------------------------| 
 | 
 | 
 | (Bass and GUITAR 1 play, then GUITAR 2 comes back in at 1:17) 
 | 
 | 
E|-----------------7-------------------|-----------------7----------------| 
B|------8---10p8-------8-----10p8---8--|------8---10p8-------8---------8--| 
G|--7-7---7------7---------7------7----|--7-7---7------7---------7-7h9----| 
D|-------------------------------------|----------------------------------| 
A|-------------------------------------|----------------------------------| 
E|-------------------------------------|----------------------------------| 
 | 
 | 
E|-----------------7-------------------|-----------------7---------------------| 
B|------8---10p8-------8-----10p8---8--|------8---10p8-------8---------8-------| 
G|--7-7---7------7---------7------7----|--7-7---7------7---------7-7h9-----7~--| 
D|-------------------------------------|---------------------------------------| 
A|-------------------------------------|---------------------------------------| 
E|-------------------------------------|---------------------------------------| 



1:39 - 2:04 


GUITAR 1 

E|-------------------------------------------------------------------| 
B|--3-3-3-3-3-3-3-3-3-3-3-3-3-3-3-3-3-3-3-3-3-3-3-3-3-3-3-3-3-3-3-3--|   x 4 
G|--0-0-0-0-0-0-0-0-0-0-0-0-0-0-0-0-0-0-0-0-0-0-0-0-0-0-0-0-0-0-0-0--| 
D|--2-2-2-2-2-2-2-2-0-0-0-0-0-0-0-0-0-0-0-0-0-0-0-0-0-0-0-0-0-0-0-0--| 
A|----------------------------------2-2-2-2-2-2-2-2-0-0-0-0-0-0-0-0--| 
E|-------------------------------------------------------------------| 



GUITAR 2 (Comes in at 1:45) 

E|--------------------------------------------------0-0-0-0-----------------------------------------| 
B|-3-3-3-3-3-3-3-3-3-3-3-3-3-3-3-3-3-3-3-3-3-3-3-3----------3-3-3-3-0-0-0-0-0-0-0-0-0-0-0-0-0-0-0-0-| 
G|--------------------------------------------------------------------------------------------------| 
D|--------------------------------------------------------------------------------------------------| 
A|--------------------------------------------------------------------------------------------------| 
E|--------------------------------------------------------------------------------------------------| 
 | 
 | 
E|-----------------------------------------------------------------------------------| 
B|------------------1-1-1-1-0-0-0-0--------------------------------------------------| 
G|--2-2-2-2-2-2-2-2-----------------0-0-0-0-0-0-0-0-0-0-0-0-0-0-0-0-2-2-2-2-2-2-2-2--| 
D|-----------------------------------------------------------------------------------| 
A|-----------------------------------------------------------------------------------| 
E|-----------------------------------------------------------------------------------| 
 | 
 | 
E|----------------------| 
B|--3-3-3-3-0-0-0-0-----| 
G|------------------0~--| 
D|----------------------| 
A|----------------------| 
E|----------------------| 



2:04 - 3:05 


GUITAR 1 

E|------------------------------------|------------------------------------| 
B|--3-3-3333-3-333333-3-3333-3-33333--|--3-3-3333-3-333333-3-3333-3-33333--| 
G|--0-0-0000-0-000000-0-0000-0-00000--|--0-0-0000-0-000000-0-0000-0-00000--| 
D|--2-2-2222-2-222200-0-0000-0-00000--|--2-2-2222-2-222200-0-0000-0-00000--| 
A|-----------------02-2-2220-0-00000--|-----------------02-2-2220-0-00000--| 
E|------------------------------------|------------------------------------| 
 | 
 | 
E|-------------------------------------------------------------------| 
B|--3-3-3-3-3-3-3-3-3-3-3-3-3-3-3-3-3-3-3-3-3-3-3-3-3-3-3-3-3-3-3-3--| 
G|--0-0-0-0-0-0-0-0-0-0-0-0-0-0-0-0-0-0-0-0-0-0-0-0-0-0-0-0-0-0-0-0--| 
D|--2-2-2-2-2-2-2-2-2-2-2-2-2-2-2-0-0-0-0-0-0-0-0-0-0-0-0-0-0-0-0-0--| 
A|--------------------------------0-2-2-2-2-2-2-2-2-0-0-0-0-0-0-0-0--| 
E|-------------------------------------------------------------------| 
 | 
 | 
E|-------------------------------------------------------------------| 
B|--3-3-3-3-3-3-3-3-3-3-3-3-3-3-3-3-3-3-3-3-3-3-3-3-3-3-3-3-3-3-3-3--| 
G|--0-0-0-0-0-0-0-0-0-0-0-0-0-0-0-0-0-0-0-0-0-0-0-0-0-0-0-0-0-0-0-0--| 
D|--2-2-2-2-2-2-2-2-2-2-2-2-2-2-2-0-0-0-0-0-0-0-0-0-0-0-0-0-0-0-0-0--| 
A|--------------------------------0-2-2-2-2-2-2-2-2-0-0-0-0-0-0-0-0--| 
E|-------------------------------------------------------------------| 
 | 
 | 
E|------------------------------------|----------------------------------| 
B|--3-33-33-33-333333-33-33-33-33333--|--3-33-33-33-333333-33-33-33-333--| 
G|--0-00-00-00-000000-00-00-00-00000--|--0-00-00-00-000000-00-00-00-000--| 
D|--2-22-22-22-222200-00-00-00-00000--|--2-22-22-22-222200-00-00-00-000--| 
A|-----------------02-22-20-00-00000--|-----------------02-22-20-00-000--| 
E|------------------------------------|----------------------------------| 
 | 
 | 
E|---------------------------------------------------------------| 
B|--3-3-3-3-3-3-3-3-3-3-3-3-3-3-3-3-3-3-3-3-3-3-3-3-3-3-3-3-3-3--| 
G|--0-0-0-0-0-0-0-0-0-0-0-0-0-0-0-0-0-0-0-0-0-0-0-0-0-0-0-0-0-0--| 
D|--2-2-2-2-2-2-2-2-2-2-2-2-2-2-2-2-0-0-0-0-0-0-0-0-0-0-0-0-0-0--| 
A|----------------------------------2-2-2-2-2-2-2-2-0-0-0-0-0-0--| 
E|---------------------------------------------------------------| 
 | 
 | 
E|-------------------------------------------------------------------| 
B|--3-3-3-3-3-3-3-3-3-3-3-3-3-3-3-3-3-3-3-3-3-3-3-3-3-3-3-3-3-3-3-3--| 
G|--0-0-0-0-0-0-0-0-0-0-0-0-0-0-0-0-0-0-0-0-0-0-0-0-0-0-0-0-0-0-0-0--| 
D|--2-2-2-2-2-2-2-2-2-2-2-2-2-2-2-2-0-0-0-0-0-0-0-0-0-0-0-0-0-0-0-0--| 
A|----------------------------------2-2-2-2-2-2-2-2-0-0-0-0-0-0-0-0--| 
E|-------------------------------------------------------------------| 
 | 
 | 
E|---------------------------------------------------------------| 
B|--3-3-3-3-3-3-3-3-3-3-3-3-3-3-3-3-3-3-3-3-3-3-3-3-3-3-3-3-3-3--| 
G|--0-0-0-0-0-0-0-0-0-0-0-0-0-0-0-0-0-0-0-0-0-0-0-0-0-0-0-0-0-0--| 
D|--2-2-2-2-2-2-2-2-2-2-2-2-2-2-2-2-0-0-0-0-0-0-0-0-0-0-0-0-0-0--| 
A|----------------------------------2-2-2-2-2-2-2-2-0-0-0-0-0-0--| 
E|---------------------------------------------------------------| 
 | 
 | 
E|------------------------------------|------| 
B|--3-33-33-33-333333-33-33-33-33333--|--3~--| 
G|--0-00-00-00-000000-00-00-00-00000--|--0~--| 
D|--2-22-22-22-222200-00-00-00-00000--|--2~--| 
A|-----------------02-22-20-00-00000--|------| 
E|------------------------------------|------| 



GUITAR 2 (Comes in at 2:16) 

E|-----------------7-------------------|-----------------7----------------| 
B|------8---10p8-------8-----10p8---8--|------8---10p8-------8---------8--| 
G|--7-7---7------7---------7------7----|--7-7---7------7---------7-7h9----| 
D|-------------------------------------|----------------------------------| 
A|-------------------------------------|----------------------------------| 
E|-------------------------------------|----------------------------------| 
 | 
 | 
E|-----------------7-------------------|-----------------7----------------| 
B|------8---10p8-------8-----10p8---8--|------8---10p8-------8---------8--| 
G|--7-7---7------7---------7------7----|--7-7---7------7---------7-7h9----| 
D|-------------------------------------|----------------------------------| 
A|-------------------------------------|----------------------------------| 
E|-------------------------------------|----------------------------------| 
 | 
 | 
E|-----------------------------------------------------------------------------------| 
B|--8-8-8-8-8-8-8-8-8-8-8-8-8-8-8-8-10-10-10-10-10-10-10-10-10-10-10-10-10-10-10-10--| 
G|-----------------------------------------------------------------------------------| 
D|-----------------------------------------------------------------------------------| 
A|-----------------------------------------------------------------------------------| 
E|-----------------------------------------------------------------------------------| 
 | 
 | 
E|--------------------------------------------------------------------------| 
B|--8-8-8-8-8-8-8-8-8-8-8-8-8-8-8-8-10-10-10-10-10-10-10-10-10-10-10-10-10--| 
G|--------------------------------------------------------------------------| 
D|--------------------------------------------------------------------------| 
A|--------------------------------------------------------------------------| 
E|--------------------------------------------------------------------------| 
 | 
 | 
E|---------10tr--7tr--------------7tr---------10tr--7tr---------------7tr--| 
B|--8tr--------------10tr----8tr-------8tr---------------10tr----8tr-------| 
G|-------------------------------------------------------------------------| 
D|-------------------------------------------------------------------------| 
A|-------------------------------------------------------------------------| 
E|-------------------------------------------------------------------------| 
 | 
 | 
E|--10tr----12tr--10tr--7tr-------------------10tr--7tr---------------7tr------| 
B|-----------------------------10tr----8tr---------------10tr----8tr-------8~--| 
G|-----------------------------------------------------------------------------| 
D|-----------------------------------------------------------------------------| 
A|-----------------------------------------------------------------------------| 
E|-----------------------------------------------------------------------------| 



3:05 - 3:18 


E|----------------------------------------------------| 
B|------------------------------------------------3~--| < You can hear this 
G|----------0---------0---------0-----------0---------|   at the end! Starts 
D|------0---------0---------0-----------0-------------|   immediately after 
A|--3-3---3---3-3---3---3-3---3---3-3-3---3---3-3-----|   previous part ends. 
E|----------------------------------------------------| 



END 



**************************** 

|  ~    held note 
|  p    pull off 
|  h    hammer on 
|  tr   tremolo pick 

**************************** 
		  

See also:

tabs Misc Computer Games - Legend Of Zelda - Ocarina Of Time - Song Of Storms Windmill Hut Theme tabs Misc Computer Games - Undertale - Dogsong tabs Misc Computer Games - Sea Of Thieves - Becalmed Hurdy-gurdy tabs Michael Angelo Batio - A New Day tabs Misc Computer Games - League Of Legends - Tahm Kench Theme tabs Marco Di Mauro - Nada De Nada
e-chords

Other versions:

tabs Turnover - Cutting My Fingers Off
auto scroll beats size up size down change color hide chords drawings
tab show chords e-chords YouTube Clip e-chords hide all tabs e-chords go to top tab

share