Temas Diversos

Turkish March Tab

Temas Diversos

Difficulty: nolevelnolevel

by gustsilva

tuner correct add songbook print version text version save to e-mail
chordsukulelecavacokeyboardtabbassdrumsharmonicsflute Guitar Pro
close

there isn't a video lesson for this song

request
chords

Turkish March

  		

Parte 1 
 
e|-----------------------------|---------7----------7---------8~| 
B|-----------------------------|-----------10-9-10----10-8-10---| 
G|----------------7---------9--|10-9-8-9------------------------| 
D|-9----------10----10-9-10----|--------------------------------| 
A|---12-11-12------------------|--------------------------------| 
E|-----------------------------|--------------------------------| 
 

Parte 2 
 
e|---------------------------------------------------| 
B|----10-12-10-----10-12-10-----10-10h12p10----------| 
G|-12-----------12-----------12--------------12-11-9~| 
D|---------------------------------------------------| 
A|---------------------------------------------------| 
E|---------------------------------------------------| 
 

Parte 1 
 
e|-----------------------------|---------7----------7---------8~| 
B|-----------------------------|-----------10-9-10----10-8-10---| 
G|----------------7---------9--|10-9-8-9------------------------| 
D|-9----------10----10-9-10----|--------------------------------| 
A|---12-11-12------------------|--------------------------------| 
E|-----------------------------|--------------------------------| 
 

Parte 2 
 
e|---------------------------------------------------| 
B|----10-12-10-----10-12-10-----10-10h12p10----------| 
G|-12-----------12-----------12--------------12-11-9~| 
D|---------------------------------------------------| 
A|---------------------------------------------------| 
E|---------------------------------------------------| 
 

Parte 3 
 
e|-----------------------|-----------------------|------------------------|------------------------| 
B|-------8-8-10-8--------|-------8-8-10-8--------|------------------------|------------------------| 
G|-/9-10----------10-9-7~|--9-10----------10-9-7~|-------9-9-10-9---------|-------9-9-10-9---------| 
D|-----------------------|-----------------------|-10-12----------12-10-9~|-10-12----------12-10-9~| 
A|-----------------------|-----------------------|------------------------|------------------------| 
E|-----------------------|-----------------------|------------------------|------------------------| 
 

Parte 1 
 
e|-----------------------------|---------7----------7---------8~| 
B|-----------------------------|-----------10-9-10----10-8-10---| 
G|----------------7---------9--|10-9-8-9------------------------| 
D|-9----------10----10-9-10----|--------------------------------| 
A|---12-11-12------------------|--------------------------------| 
E|-----------------------------|--------------------------------| 
 

Parte 4 
 
e|--------------------------------------------| 
B|-10/12-13-13p12-10-9-10---------------------| 
G|------------------------9-10-7--------------| 
D|-------------------------------10~-9h10p9-7~| 
A|--------------------------------------------| 
E|--------------------------------------------| 
 

Parte 5 
 
e|-------9h10p9-------9h10p9-------------------------------9h10p9-------9h10p9---------------------| 
B|-10-12--------10-12--------12-10-9----9-10-12-9----10-12--------10-12--------12-10-9----12-9---10| 
G|-----------------------------------11-----------9------------------------------------11------9---| 
D|-------------------------------------------------------------------------------------------------| 
A|-------------------------------------------------------------------------------------------------| 
E|-------------------------------------------------------------------------------------------------| 
 

Parte 5 
 
e|-------9h10p9-------9h10p9-------------------------------9h10p9-------9h10p9---------------------| 
B|-10-12--------10-12--------12-10-9----9-10-12-9----10-12--------10-12--------12-10-9----12-9---10| 
G|-----------------------------------11-----------9------------------------------------11------9---| 
D|-------------------------------------------------------------------------------------------------| 
A|-------------------------------------------------------------------------------------------------| 
E|-------------------------------------------------------------------------------------------------| 
 
 
	  

Search Paypal
auto scroll beats size up size down change color hide chords drawings
tab show chords e-chords YouTube Clip e-chords hide all tabs e-chords go to top tab

share with facebook