Rayssa Goulart

Queimem As Bruxas

Rayssa Goulart

tabs

by  SABRJOAO

save to print version add songbook text version e-mail correct tuner
chordsukulelecavacokeyboardtabbassdrumsharmonicaflute Guitar Pro
close

there isn't a video lesson for this song

chords

Queimem As Bruxas

	  		(intro 4x)(sem distorção na terceira liga a distorção) 

(riff 1) 
D |--------------------------------------------------------------------------------------| 
A |--5/6-5--5/6-5--3/6-3--5/6-5--5-3/8---\-----5/6-5--5/6-5--3/6-3--5/6-5--5-3/8---\-----| 
D |--7/8-7--7/8-7--5/8-5--7/8-7--7-5/10--\-----7/8-7--7/8-7--5/8-5--7/8-7--7-5/10--\-----| 
G |--7/8-7--7/8-7--5/8-5--7/8-7--7-5/10--\-----------------------------------------------| 
B |--------------------------------------------------------------------------------------| 
E |--------------------------------------------------------------------------------------| 

(verso 1) 
D |--12-10-8h10-8\7h8-7\5h8---00-000--10101010--00-000--10101010-------------------------| 
A |--12-10-8h10-8\7h8-7\5h8---00-000--10101010--00-000--10101010-------------------------| 
D |--12-10-8h10-8\7h8-7\5h8---00-000--10101010--00-000--10101010-------------------------| 
G |--------------------------------------------------------------------------------------| 
B |--------------------------------------------------------------------------------------| 
E |--------------------------------------------------------------------------------------| 

(pré-Refrão) 
D |---8h7777777777777777-------------------------------------------------------------------| 
A |---8h7777777777777777-------------------------------------------------------------------| 
D |---8h7777777777777777-------------------------------------------------------------------| 
G |----------------------------------------------------------------------------------------| 
B |----------------------------------------------------------------------------------------| 
E |----------------------------------------------------------------------------------------| 

(Refrão) 
D |---0h1-0--0h1-0-1h3-1--0h1-0--0h1-0-1h3------------------------------------------------| 
A |---0h1-0--0h1-0-1h3-1--0h1-0--0h1-0-1h3------------------------------------------------| 
D |---0h1-0--0h1-0-1h3-1--0h1-0--0h1-0-1h3------------------------------------------------| 
G |---------------------------------------------------------------------------------------| 
B |---------------------------------------------------------------------------------------| 
E |---------------------------------------------------------------------------------------| 

(intro) 
D |--------------------------------------------------------------------------------------| 
A |--5/6-5--5/6-5--3/6-3--5/6-5--5-3/8---\-----5/6-5--5/6-5--3/6-3--5/6-5--5-3/8---\-----| 
D |--7/8-7--7/8-7--5/8-5--7/8-7--7-5/10--\-----7/8-7--7/8-7--5/8-5--7/8-7--7-5/10--\-----| 
G |--7/8-7--7/8-7--5/8-5--7/8-7--7-5/10--\-----------------------------------------------| 
B |--------------------------------------------------------------------------------------| 
E |--------------------------------------------------------------------------------------| 

(verso 2) 
D |--12-10-8h10-8\7h8-7\5h8---00-000--10101010--00-000--10101010-------------------------| 
A |--12-10-8h10-8\7h8-7\5h8---00-000--10101010--00-000--10101010-------------------------| 
D |--12-10-8h10-8\7h8-7\5h8---00-000--10101010--00-000--10101010-------------------------| 
G |--------------------------------------------------------------------------------------| 
B |--------------------------------------------------------------------------------------| 
E |--------------------------------------------------------------------------------------| 

(pré-Refrão) 
D |---8h7777777777777777-------------------------------------------------------------------| 
A |---8h7777777777777777-------------------------------------------------------------------| 
D |---8h7777777777777777-------------------------------------------------------------------| 
G |----------------------------------------------------------------------------------------| 
B |----------------------------------------------------------------------------------------| 
E |----------------------------------------------------------------------------------------| 

(Refrão) 
D |---0h1-0--0h1-0-1h3-1--0h1-0--0h1-0-1h3------------------------------------------------| 
A |---0h1-0--0h1-0-1h3-1--0h1-0--0h1-0-1h3------------------------------------------------| 
D |---0h1-0--0h1-0-1h3-1--0h1-0--0h1-0-1h3------------------------------------------------| 
G |---------------------------------------------------------------------------------------| 
B |---------------------------------------------------------------------------------------| 
E |---------------------------------------------------------------------------------------| 

(bridge) 
D |---0h1-0--0h1-0--0h1-0--0h1-0--0h1--3-1-0----------------------------------------------| 
A |---0h1-0--0h1-0--0h1-0--0h1-0--0h1--3-1-0----------------------------------------------| 
D |---0h1-0--0h1-0--0h1-0--0h1-0--0h1--3-1-0----------------------------------------------| 
G |---------------------------------------------------------------------------------------| 
B |---------------------------------------------------------------------------------------| 
E |---------------------------------------------------------------------------------------| 

(Refrão) 
D |---0h1-0--0h1-0-1h3-1--0h1-0--0h1-0-1h3------------------------------------------------| 
A |---0h1-0--0h1-0-1h3-1--0h1-0--0h1-0-1h3------------------------------------------------| 
D |---0h1-0--0h1-0-1h3-1--0h1-0--0h1-0-1h3------------------------------------------------| 
G |---------------------------------------------------------------------------------------| 
B |---------------------------------------------------------------------------------------| 
E |---------------------------------------------------------------------------------------| 

(verso 3 - 8x) 
D |--------------------------------------------------------------------------------------| 
A |--5/6-5--5/6-5--3/6-3--5/6-5--5-3/8---\-----5/6-5--5/6-5--3/6-3--5/6-5--5-3/8---\-----| 
D |--7/8-7--7/8-7--5/8-5--7/8-7--7-5/10--\-----7/8-7--7/8-7--5/8-5--7/8-7--7-5/10--\-----| 
G |--7/8-7--7/8-7--5/8-5--7/8-7--7-5/10--\-----------------------------------------------| 
B |--------------------------------------------------------------------------------------| 
E |--------------------------------------------------------------------------------------| 

(verso 1) 
É claro que não nos deixaram em paz... 
Eu ouço vozes me chamando pra mim tanto faz... 
Os barbaros invadem trazendo terror... 
Os olhos negros me cercam de horror... 

(pré-Refrão) 
Por quê??? 

(Refrão) 
As bruxas estão a solta... 
Não tem para onde ir... 
Tenho que ficar aqui nessa noite traiçoeira... 
Fecho os olhos espero o dia chegar... 
Mas a escuridão me cerca... 
Não sei mas o que vou fazer... 

(verso 2) 

Anjos negros me atormentam... 
Desejaria poder acordar,abrir os olhos,poder voltar... 
Encontrar alguém pra me salvar... 
Os portões se fecham contra mim... 

(pré-Refrão) 
Por quê?? 

(Refrão) 
As bruxas estão a solta... 
Não tem para onde ir... 
Tenho que ficar aqui nessa noite traiçoeira... 
Fecho os olhos espero o dia chegar... 
Mas a escuridão me cerca... 
Não sei mas o que vou fazer... 

(bridge) 
ah..ah...ah... 
ah..ah...ah... 
ah...ah...ah... 
ah...ah...ah..ah... 

(Refrão) 
As bruxas estão a solta... 
Não tem para onde ir... 
Tenho que ficar aqui nessa noite traiçoeira... 
Fecho os olhos espero o dia chegar... 
Mas a escuridão me cerca... 
Não sei mas o que vou fazer... 

(verso 3) 
Eles querem que queimem as bruxas... 
Eles querem que queimem as bruxas... 
Eles querem que queimem as bruxas... 
Eles querem que queimem as bruxas... 
Eles querem que queimem as bruxas... 
Eles querem que queimem as bruxas... 
Eles querem que queimem as bruxas... 
Eles querem que queimem as bruxas... 
		  

auto scroll beats size up size down change color hide chords drawings
tab show chords e-chords YouTube Clip e-chords hide all tabs e-chords go to top tab

share