Mozart

home > Mozart

Turkish March Tab

Mozart

Difficulty: ExpertExpert

by Teusalves

tuner correct add songbook print version text version save to e-mail
chordsukulelecavacokeyboardtabbassdrumsharmonicsflute Guitar Pro
chords

Turkish March

  		1° Part 

|---------------------------------0-----------------| 
|--------------1-------3--1--0h1---------6--5--4h5--| 
|--4--2--1h2---2------------------------------------| 
|---------------------------------------------------| 
|--------------0--0h3-------------0h3---------------| 
|----------------------0-----------------0----------| 

|--7--5--4h5--7--5--4h5-------8-| 
|----------------------------5--| 
|---------------------------5---| 
|-------------------------------| 
|--0----------0-----------------| 
|-------------------------------| 


2° Part 

|--5--8~----7---5---3---5---7---5---3---5---7---------------0-| 
|-----------8---7---5---7---8---7---5---7---8---10---8--------| 
|---------------0---0---0-------0---0---0-------11---8--8-----| 
|-------------------------------------------------------------| 
|-------------------------------------------------------------| 
|-----------0---------------0---------------0--------7------0-| 



3° Part 

|-0--1--3--3--5p3----------0--1--3--3--5p3--------------------0--| 
|-1--3--5--5-------6-5--3--1--3--5--5-------6-5--3--1--3-----1---| 
|-----------------------4------------------------4--2--4----2----| 
|----------------------------------------------------------2-----| 
|-------3------------------------3------------------------0------| 
|-----------------------3------------------------3---------------| 


|-0-1p0--------------------0--0-1p0-----------| 
|--------3-1--0--1--4-----1----------3-1----0-| 
|-------------1--2--3----2-----------------1--| 
|-----------------------2---------------------| 
|----------------------0----------------------| 
|-------------0---------------------------0---| 


4° Part 

|---------------------------------0----------------| 
|--------------1-------3--1--0h1---------6--5--4h5-| 
|--4--2--1h2---2-----------------------------------| 
|--------------------------------------------------| 
|--------------0--0h3-------------0h3--------------| 
|----------------------0-----------------0---------| 


|--7--5--4h5--7--5--4h5-------8-| 
|----------------------------5--| 
|---------------------------5---| 
|-------------------------------| 
|-------------0-----------------| 
|--0----------------------------| 

     
|--0--7----8~--7--5--4-------5--0-----1--------------------------| 
|---------------------------5--------3---3----1----0p1p0----1----| 
|--------------------------5--------2---------------------2-----2| 
|--------0------------------------0--------------2---------------| 
|------------------------0-------------------------------------0-| 
|-------------------------------------------0--------------------| 

5° Part 


|-5---7/9-9-----5---7/9--9--7--5--4--3--7---4--------5-| 
|------------------------------------2------5--5----5--| 
|-6---7/9-9-----6---7/9--9--7--6--4--3------4------6---| 
|------------------------------------0-----------------| 
|------------0------------------------------------0----| 
|-------------------------------------------0----------| 


6° Part 

|-9-10p9---------------------------------------------------------| 
|--------12--10h12-10p9----10p9----------9-----------------------| 
|-----------------------11------11-10h11---10--------10-----11p10| 
|--------------------------------------------11h13------11-------| 
|------------9---------------------------------------------9-----| 
|----------------------------------9-----------------------------| 


|--------------------9p8-9p8--9h10-9-----------------------------| 
|----9--10p9-10--12-------------------12--10h12-10p9-----10p9----| 
|-11--------------------------------------------------11-------11| 
|----------------------------------------------------------------| 
|-------9------------8--------------------9----------------------| 
|----------------------------------------------------------------| 


|-----------------------------------------------| 
|------9---------------------7----------------2-| 
|-9h11---9--------9------8h9---8-----6h8------4-| 
|-----------11h13----11----------10-------10--3-| 
|---------------------------------------------4-| 
|-9----------------------8----------------------| 



7° Part 

|----------------------------2h4--5~---5--4--2----------------| 
|--5--3p2------------2h3--5----------------------5--5--3h2----| 
|----------2--2--p4-----------------------------------------4-| 
|-------------------------------------------------------------| 
|-------------0-----------------------------------------------| 
|--------------------------------------0----------------------| 


|----------------2h4--5--6-----------------------| 
|--------2h3--5----------5-----hn13---5~--3h2----| 
|--2--p4-----------------6---------------------4-| 
|------------------------5-----------------------| 
|--0---------------------------------------------| 
|-----------------------------0------------------| 


|----------------------2h4--5~---5--4--2-------------| 
|------------2h3--5----------------------5--5--3h2---| 
|---2---p4-----------------------------------------4-| 
|----------------------------------------------------| 
|---0------------------------------------------------| 
|--------------------------------0-------------------| 


|-----------------------------| 
|--2---4----2--0--3-----3-----| 
|--2------2----1-----1------2-| 
|-----------------------------| 
|--0------------------------0-| 
|--------------0--------------| 
	  

Search Paypal
auto scroll beats size up size down change color hide chords drawings
tab show chords e-chords YouTube Clip e-chords hide all tabs e-chords go to top tab