Daniel San Guitar

Ojos Así

Daniel San Guitar

tabs

by  DANIEL_SAN_GTR

save to print version add songbook text version e-mail correct tuner
chordsukulelecavacokeyboardtabbassdrumsharmonicaflute Guitar Pro
close

there isn't a video lesson for this song

chords

Ojos Así

(Shakira )

	  		

E|---------------------------|---------------------------------------|     
B|-----6-7-6-9-7-6-7-6-------|-7/9--9-7-6-7/9--9-7-6-7--7-7-9-7-6----|    
G|-5-6-----------------7-6-5-|------------------------------------6--|(2x)    
D|---------------------------|---------------------------------------|    
A|---------------------------|---------------------------------------|    
E|---------------------------|---------------------------------------|    


E|------------------------------|-----5-------------------| 
B|------------------------------|-------------6-7-9-7-6---| 
G|------------------------------|-5/7---7-6-------------7-|  
D|---------7------7----------7--|-------------------------| 
A|-4-4-5-5----4-5----4-4-5-5----|-------------------------| 
E|------------------------------|-------------------------| 


E|------------------------------|-----5-----------------------------| 
B|------------------------------|---------------------6-7-9-7-6-7-6-| 
G|------------------------------|-5/7---7-7-6-5-6---6---------------| 
D|---------7------7----------7--|-----------------------------------| 
A|-4-4-5-5----4-5----4-4-5-5----|-----------------------------------| 
E|------------------------------|-----------------------------------| 


E|--------------------------------------------|        
B|-----5---------5--------------------5-5-----|        
G|-6-7---7-6-6-7---7-6---4-4--4-4-4-4-----7-6-|  (2x)  
D|--------------------------------------------|        
A|--------------------------------------------|        
E|--------------------------------------------|        

Refrão 2x: 

E|--------------------------------------------------|   
B|-9-9-9-9---12-12-10-9---7-7--7-7-7-7---12-12-10-9-|   
G|--------------------------------------------------|   
D|--------------------------------------------------|   
A|--------------------------------------------------|   
E|--------------------------------------------------|   


E|--------------------------------------------|         
B|-/9-9-10---7-7--7-9---2/3-2-3/5-3-5/7-------|         
G|--------------------------------------7-6~~~|         
D|--------------------------------------------|         
A|--------------------------------------------|         
E|--------------------------------------------|         

Improviso 1: 

E|-----------------------------------|   
B|-9~~9~7~6~9~~9~7~6~7~~7~7~9~7~6~---|   
G|--------------------------------6~~|   
D|-----------------------------------|   
A|-----------------------------------|   
E|-----------------------------------|   


E|-----------------------------------------13-14-16-|  
B|--------------------------------12-14-15----------|  
G|-----------------------10-11-13-------------------|  
D|---------------9-11-12----------------------------|  
A|--------8-9-11------------------------------------|  
E|-7-9-10-------------------------------------------|  


E|-16--16-14-13-14/16--16-14-13-14--14-14-16-14-13-----| 
B|-------------------------------------------------14^-| 
G|-----------------------------------------------------| 
D|-----------------------------------------------------| 
A|-----------------------------------------------------| 
E|-----------------------------------------------------| 


E|------------------------------|-----5-------------------| 
B|------------------------------|-------------6-7-9-7-6---| 
G|------------------------------|-5/7---7-6-------------7-| 
D|---------7------7----------7--|-------------------------| 
A|-4-4-5-5----4-5----4-4-5-5----|-------------------------| 
E|------------------------------|-------------------------| 


E|------------------------------|-----5-----------------------------| 
B|------------------------------|---------------------6-7-9-7-6-7-6-| 
G|------------------------------|-5/7---7-7-6-5-6---6---------------| 
D|---------7------7----------7--|-----------------------------------| 
A|-4-4-5-5----4-5----4-4-5-5----|-----------------------------------| 
E|------------------------------|-----------------------------------| 
  

E|--------------------------------------------|        
B|-----5---------5--------------------5-5-----|        
G|-6-7---7-6-6-7---7-6---4-4--4-4-4-4-----7-6-|  (2x)  
D|--------------------------------------------|        
A|--------------------------------------------|        
E|--------------------------------------------|        


E|--------------------------------------------------|  
B|-9-9-9-9---12-12-10-9---7-7--7-7-7-7---12-12-10-9-|  
G|--------------------------------------------------|  
D|--------------------------------------------------|  
A|--------------------------------------------------|  
E|--------------------------------------------------|  


E|--------------------------------------------|  
B|-/9-9-10---7-7--7-9---2/3-2-3/5-3-5/7-------|  
G|--------------------------------------7-6~~~|  
D|--------------------------------------------|  
A|--------------------------------------------|  
E|--------------------------------------------|  


E|---------------------------------------------------|  
B|-----5---------5-------6-7-9-7-6-------------------|  
G|-6-7---7-6-6-7---7-6-------------7-6-4-------------|  
D|---------------------------------------6-4-3-------|  
A|---------------------------------------------5-4-2-|  
E|---------------------------------------------------|  


E|---------------------------------5-7-9-7-5-4-7-5-4-7-5-4-2-5-4-2-1-|  
B|-----5---------5-----------6-7-9-----------------------------------| 
G|-6-7---7-6-6-7---7-6---6-7-----------------------------------------| 
D|-------------------------------------------------------------------| 
A|-------------------------------------------------------------------| 
E|-------------------------------------------------------------------| 


E|--------------------------------------------|  
B|-/9-9-10---7-7--7-9---2/3-2-3/5-3-5/7-------|  
G|--------------------------------------7-6~~~|  
D|--------------------------------------------|  
A|--------------------------------------------|  
E|--------------------------------------------|  

Improviso 2: 

E|-------12-------------12----------------------------------------| 
B|-14-15----15-14-14-15----15-14---12-12--12-12-12-12-17-17-15-14-| 
G|----------------------------------------------------------------| 
D|----------------------------------------------------------------| (2x) 
A|----------------------------------------------------------------| 
E|----------------------------------------------------------------|      

Refrão 2x: 

E|-16-16-16-16---19-19-17-16---14-14--14-14-14---19-19-17-16-| 
B|-----------------------------------------------------------| 
G|-----------------------------------------------------------| 
D|-----------------------------------------------------------| 
A|-----------------------------------------------------------| 
E|-----------------------------------------------------------| 
                    

E|-/16-16-17---14-14--14-16---------------------------------| 
B|----------------------------14/15-14-15/17-15-17/19-15-14-|  
G|----------------------------------------------------------| 
D|----------------------------------------------------------| 
A|----------------------------------------------------------| 
E|----------------------------------------------------------| 
		  

auto scroll beats size up size down change color hide chords drawings
tab show chords e-chords YouTube Clip e-chords hide all tabs e-chords go to top tab

share