Survivor

home > Survivor

Eye of the Tiger Tab

Survivor

Difficulty: BeginnerBeginner

tuner correct add songbook print version text version save to e-mail
chordsukulelecavacokeyboardtabbassdrumsharmonicsflute Guitar Pro
chords

Eye of the Tiger

	  
Intro: C5 C5 Bb5 C5 C5 Bb5 C5 C5 Bb5 Ab5

2°guitar

e|------------------------------------------------|
B|------------------------------------------------|
G|--8-8-7-8--8-7-8--5-------8-8-7-8--8-7-8--5-----|
D|--8-8-8-8--8-8-8--5-5-6---8-8-8-8--8-8-8--5-5-6-|
A|--------------------5-6---------------------5-6-|
E|------------------------------------------------|

1°Guitar

Verse: C5 Ab Bb5 C5 (4x)

Chorus:

e|--------------------------|
B|----4--3-------4-3----4-3-|
G|----3--3-------3-3----3-3-|
D|--------------------------|
A|-3-----------3------3-----|
E|-1-----------1------1-----|

e|-----------------|
B|-----------------|
G|-----------------|
D|--3-2-3-5-3-5-6--|
A|-----------------|

Riff Guitar 1°

e|------------------------|
B|-8-6h8p6----8-6-6h8p6---|
G|---------8------------8-|
D|------------------------|
A|------------------------|
E|------------------------|

Riff Guitar 2°

e|--------------------------|
B|-4-3-3h4p3----4-3-3h4p3---|
G|-----------5------------5-|
D|--------------------------|
A|--------------------------|
E|--------------------------|





	  

there is a video lesson for this song
view full video
Full key step upFull key step up
Half key step upHalf key step up
Half key step downHalf key step down
Full key step downFull key step down
Search Paypal
auto scroll beats size up size down change color hide chords drawings
tab show chords e-chords YouTube Clip e-chords hide all tabs e-chords go to top tab