Eye of the tiger

Eye of the tiger

Eye of the tiger

tabs Expert expert

by  WHATAMAGOODY

save to print version add songbook text version e-mail correct tuner
chordsukulelecavacokeyboardtabbassdrumsharmonicaflute Guitar Pro
close

there isn't a video lesson for this song

chords

Eye of the tiger

	  		 
E---------------------------------- 
A-22222222222222222222-------------(palm muted) 
D---------------------------------- 
G---------------------------------- 
B---------------------------------- 
E---------------------------------- 
 
E-9---9--7--9---9--7---9--4--5----- 
A-9---9--7--9---9--7---9--4--5----- 
D-9---9--7--9---9--7---9--4--5----- times 2 
G---------------------------------- 
B---------------------------------- 
E---------------------------------- 
 
E-9---12--11--12---12--11--12---12--4--5-- 
A-9---12--11--12---12--11--12---12--4--5-- 
D-9---12--11--12---12--11--12---12--4--5-- 
G----------------------------------------- 
B----------------------------------------- 
E----------------------------------------- 
 

		  

auto scroll beats size up size down change color hide chords drawings
tab show chords e-chords YouTube Clip e-chords hide all tabs e-chords go to top tab

share