Petra

home > Petra

Amazing Grace Tab

Petra

Difficulty: ExpertExpert

by bismarck

tuner correct add songbook print version text version save to e-mail
chordsukulelecavacokeyboardtabbassdrumsharmonicsflute Guitar Pro
chords

Amazing Grace

Year: 2001 - Album: Farewell

  		Intro: D#m  F#  C#  C#4  C#  2x 
 
D#m                  F# 
Amazing grace, how sweet the sound  
C#                       C#4  C# 
That saved a wretch like me  
D#m                  F# 
I once was lost, but now I'm found 
C#  
Was blind but now I see  
 
Instrumental: D#m5  F#5  C#5  D#m5  F#5  C#5 
 
e----------------------------------------------------- 
B----------------------------------------------------- 
G--6-6-6-6---8-8-8-8---10-10-10-10---11-11-11-11------ 
D----------------------------------------------------- 
A--4-4-4-4---6-6-6-6----8--8--8--8----9--9--9--9------ 
E----------------------------------------------------- 
Abafe o Mi Bordão e a corda Ré,  
pois assim ficará mais fácil dar as palhetadas! 
(Se puder, abafe também a Si e a Mi Prima.) 
 
 
D#m5                 F#5 
Amazing grace, how sweet the sound  
C#                       C#4  C# 
That saved a wretch like me  
D#m5                 F#5 
I once was lost, but now I'm found  
C# 
Was blind but now I see  
 
Refrão 
 
              B         F# 
Because your love came down  
     G#m       D#m 
Your love came down 
      B         F#  
Your love came down 
       G#m        B  
And it saved, it saved me  
            
D#m5                   F#5 
Through many dangers, toils and snares 
 C#             C#4  C# 
I have already come  
D#m5                       F#5 
'Twas grace that brought me safe this far  
 C# 
And grace will lead me home  
 
Refrão 
 
              B         F# 
Because your love came down  
     G#m       D#m 
Your love came down 
      B         F#  
Your love came down 
       G#m        B  
And it saved, it saved me  
 
SOLO: F#  C#  D#m  B (todo o solo é feito com esta base) 
 
e---------------------------------------------------------- 
B----------------9-9----11-11-11------11-11-11------------- 
G--8-----6-6----------------------------------------------- 
 
e---------------------------------------------------------- 
B--7-----7-11-9-7---------------------9-11-7--------------- 
G------8----------8-----6-8-11-6-8-11--------8------------- 
 
e----------------------11-13-14-13--------13-14-16-14-13-11 
B----------------------------------14-11------------------- 
G-6h8--8/11---8p6h8---------------------------------------- 
 
e--14--16-16b18-14-16b18----------------------------------- 
B---------------------------------------------------------- 
G---------------------------------------------------------- 
 
(Dedilhando) 
 
D#m                         F# 
When we've been there ten thousand years  
C#                        
Bright-shining as the sun  
D#m                    F# 
We've no less days to sing God's praise  
 
Refrão 
 
              B         F# 
Because your love came down  
     G#m       D#m 
Your love came down 
      B         F#  
Your love came down 
       G#m        B  
And it saved, it saved me  
 
 
Obs.: A música está baseada no Petra Farewell, 
talvez a versão original seja um pouco diferente, 
tanto o tom, como também as notas e o solo... 
 
Petra for Ever and Ever!!! 

	  

Full key step upFull key step up
Half key step upHalf key step up
Half key step downHalf key step down
Full key step downFull key step down
Search Paypal
auto scroll beats size up size down change color hide chords drawings
tab show chords e-chords YouTube Clip e-chords hide all tabs e-chords go to top tab