Alex G

home > Alex G

16 Mirrors Tab

Alex G

Difficulty: nolevelnolevel

by PAULLET3

tuner correct add songbook print version text version save to e-mail
chordsukulelecavacokeyboardtabbassdrumsharmonicsflute Guitar Pro
chords

16 Mirrors

  		
Intro 

D#|------0-0-0-0-0-0-0--------------------------------------------------------| 
A#|------7-7-7-3-3-5-5-5-5-5-3-3-3-3-3-3-3------------------------------------| 
F#|------0-0-0-0-0-0-0-0-0-0-2-2-2-2-2-2-2------------------------------------| 
C#|------7-7-7-5-5-5-5-5-5-5-3-3-3-3-3-3-3------------------------------------| 
G#|--0h5-5-5-5-5-5-5-5-3-3-3-1-1-1-1-1-1-1------------------------------------| 
C#|-5------------------0-0-0-0-0-0-0-0-0-0------------------------------------| 


Verse 

D#|---------------------------------------------------------------------------| 
A#|-5-5-5-3-3-3-3-3-3-3-3-3---------------------------------------------------| 
F#|-0-0-0-2-2-2-2-2-2-2-2-2-(Repeat)------------------------------------------| 
C#|-5-5-5-3-3-3-3-3-3-3-3-3---------------------------------------------------| 
G#|-3-3-3-1-1-1-1-1-1-1-1-1---------------------------------------------------| 
C#|-0-0-0-0-0-0-0-0-0-0-0-0---------------------------------------------------| 



Bridge 

D#|---0-0-0-0-0-0--0-0-0---0-0-0-0-0-0--0-0-0---0-0-0-0-0-0--0-0-0-0----------| 
A#|---7-7-7-3-5-3--3-5-3---7-7-7-3-5-3--3-5-3---7-7-7-3-5-3--3-5-3-0----------| 
F#|---0-0-0-0-0-0--0-0-0---0-0-0-0-0-0--0-0-0---0-0-0-0-0-0--0-0-0-0----------| 
C#|-0--------------------0--------------------0-------------------------------| 
G#|-0--------------------0--------------------0-------------------------------| 
C#|-0--------------------0--------------------0-------------------------------| 


Verse 

D#|---------------------------------------------------------------------------| 
A#|-5-5-5-3-3-3-3-3-3-3-3-3---------------------------------------------------| 
F#|-0-0-0-2-2-2-2-2-2-2-2-2-(Repeat)------------------------------------------| 
C#|-5-5-5-3-3-3-3-3-3-3-3-3---------------------------------------------------| 
G#|-3-3-3-1-1-1-1-1-1-1-1-1---------------------------------------------------| 
C#|-0-0-0-0-0-0-0-0-0-0-0-0---------------------------------------------------| 

D#|---------------------------------------------------------------------------| 
A#|-3-3-3-3-3-3-3-3-3---------------------------------------------------------| 
F#|-2-2-2-2-2-2-2-2-2-(Repeat)------------------------------------------------| 
C#|-3-3-3-3-3-3-3-3-3---------------------------------------------------------| 
G#|-1-1-1-1-1-1-1-1-1---------------------------------------------------------| 
C#|-0-0-0-0-0-0-0-0-0---------------------------------------------------------| 


Outro 

D#|-------------------------------------------------0-------------------------| 
A#|-5-5-5-3-3-3-3-3-3-3-3-3-3-3/5-5-0-3-3-3-3-0-5-5-0-------------------------| 
F#|-0-0-0-2-2-2-2-2-2-2-2-2-0-0-0-0-0-2-2-2-2-0-0-0-2-------------------------| 
C#|-5-5-5-3-3-3-3-3-3-3-3-3-2-2/4-4-0-3-3-3-3-0-4-4-2-------------------------| 
G#|-3-3-3-1-1-1-1-1-1-1-1-1-3-3/5-5-0-1-1-1-1-0-5-5-0-------------------------| 
C#|-0-0-0-0-0-0-0-0-0-0-0-0-----------0-0-0-0---------------------------------| 


************************************ 

| h   Hammer-on 
| /   Slide up 

************************************ 
	  

Search Paypal
auto scroll beats size up size down change color hide chords drawings
tab show chords e-chords YouTube Clip e-chords hide all tabs e-chords go to top tab