Soulfly

Jumpdafuckup

Soulfly

tabs Beginner beginner

by  MAX(BA)

save to print version add songbook text version e-mail correct tuner
chordsukulelecavacokeyboardtabbassdrumsharmonicaflute Guitar Pro
close

there isn't a video lesson for this song

chords

Jumpdafuckup

	  		 tuning in B (B E A D G B) 
  
 Intro.. he uses a wah pedal i think or flange 
  
 B)------------------------------------------- 
 G)------------------------------------------- 
 D)------------------------------------------- 
 A)------------------------------------------- 
 E)------------------------------------------- 
 B)--333-222-11-222-11-2/333-222-11-222-11-2-- 
  
 After "Jump da fuck up!!" 
  
 B)------------------------------------------- 
 G)------------------------------------------- 
 D)------------------------------------------- 
 A)--555-444-33-444-33-4/555-444-33-444-33-4-- 
 E)--555-444-33-444-33-4/555-444-33-444-33-4-- 
 B)--333-222-11-222-11-2/333-222-11-222-11-2-- 
  
  
 Verse.. with Chorus 
  
 B----------------- 
 G---9------10----- 
 D----------------- 
 A----------------- 
 E----------------- 
 B----------------- 
  
  
 Chorus 
  
 B------------------- 
 G------------------- 
 D------------------- 
 A--------------2/6-- 
 E------------------- 
 B-000000000000------ 
  
  
 Part before Corey's screaming 
  
 B)--------------- 
 G)--------------- 
 D)--------------- 
 A)--5-6-8-8-5/6-- 
 E)--5-6-9-8-5/6-- 
 B)--3-4-7-6-3/4-- 
  
  
 Corey's screaming 
  
 B)------------------- 
 G)------------------- 
 D)------------------- 
 A)--5-----5-----3/5-- 
 E)--5-----5-----3/5-- 
 B)--3-----3-----1/3-- 
  
 play the verse till the end 
 

		  

See also:

tabs Tenacious D - Her Gently tabs Trivium - Pull Harder On The Strings Of Your Martyr tabs Jesus Christ Superstar - Overture tabs Tenacious D - Its A Long Way To The Top tabs Tenacious D - One Note Song tabs Tenacious D - Wonderboy (ver. 1)
e-chords

Other versions:

tabs Soulfly - Jumpdafuckup
auto scroll beats size up size down change color hide chords drawings
tab show chords e-chords YouTube Clip e-chords hide all tabs e-chords go to top tab

share