Soulfly

The Song Remains Insane

Soulfly

tabs

by  MAX(BA)

save to print version add songbook text version e-mail correct tuner
chordsukulelecavacokeyboardtabbassdrumsharmonicaflute Guitar Pro
close

there isn't a video lesson for this song

chords

The Song Remains Insane

	  		Tune down to B (B E A D F# B) 
  
 NOTE: This song is "Caos" by Gordo, "Attitude" by Sepultura, and "The Song Remains 
 Insane" by Soulfly mixed together into one giant 'insane' song! 
  
 LEGEND: 
 	/ or \ - slide up or down 
 	~~     - vibrato 
 	p      - pull off 
   	h	 - hammer on 
  	b	 - bend 
 	N	 - natural harmonics 
 	A	 - artifical harmonics 
 	*	 - palm mute 
 	trem.  - tremelo pick 
         ^	 - arpeggiate 
  
 ---------------------------------------------------------------------------- 
  
 Part One ("Caos" by Gordo) 
  
 B|-----------------------| 
 F|-----------------------| 
 D|-9-9-9-9-10-10-10-10---| 
 A|-9-9-9-9-10-10-10-10---| 
 E|-7-7-7-7--8--8--8--8---| 
 B|-----------------------| 
  
 Break 
  
 B|-----------------------| 
 F|-----------------------| 
 D|-----------------------| 
 A|-----------------------| 
 E|-----------------------| 
 B|-0-0--0-0--0-0--0-0----| 
    * *  * *  * *  * * 
  
 Part Two ("Attitude" by Sepultura) 
  
 B|------------| 
 F|------------| 
 D|------------| 
 A|------------| 
 E|-3/5-5-5/6--| 
 B|-1/3-3-3/4--| 
  
 B|-----------| 
 F|-----------| 
 D|-----------| 
 A|-----------| 
 E|-----------| 
 B|-1p3-3-3-3-| 
  
 Part Three ("The Song Remains Insane" by Soulfly) 
  
 B|------------------| 
 F|------------------| 
 D|------------------| 
 A|------------------| 
 E|-8-8-9-9-6-6-9-9--| 
 B|-6-6-7-7-4-4-7-7--| 
  
 B|----------------------------------------| 
 F|----------------------------------------| 
 D|----------------------------------------| 
 A|----------------------------------------| 
 E|-6-x-6-x-6-6-x-x-6-x-x-6-6--6-6-x-x-x-x-| 
 B|-4-x-4-x-4-4-x-x-4-x-x-4-4--4-4-x-x-x-x-| 
 

		  

See also:

tabs X-files - Theme Song tabs Eddie Cochran - Summer time blues tabs Tenacious D - Wonderboy (ver. 1) tabs Poison - Unskinny Bop tabs Tenacious D - Her Gently tabs The Donnas - Take It Off
e-chords

Other versions:

tabs Soulfly - The Song Remains Insane
auto scroll beats size up size down change color hide chords drawings
tab show chords e-chords YouTube Clip e-chords hide all tabs e-chords go to top tab

share